El Rastro De La Conciencia

La Renga

Genero: Pop

Tablatura

Intro: riff x 1

Nota: (escuchen bien el ritmodel riff)
Riff
E|-5--5--8-5-5-5--8--5-5-5-8--5------------------------|
A|-7--7----7-7-7-----7-7-7----7-8-8-8-7--5--7----------|
D|-----------------------------------------------------|
G|---------------------------------------------- ------|
B|-----------------------------------------------------|
e|-----------------------------------------------------|

(las estrofas van con el riff)

Ves donde estoy donde voy
lo que busco es el seguro estrecho
De lo que va del dolor
a la luz que me dislumbra nena
Quiero llegar a poder
soportar la carga entera
de lo que mas pesa hoy
y no pesara mañana

F5 D5
ya veras que las cosas tienen mucho por decir
F5 D5 F5
y que futuro no es insierto para darme la espalda
D5
que no tienen soluciones de verdades
F5
ni la salvedad de los hobres
D5
que no pueden soportarlo ya


En donde estoy lo que vas
a pedirme son mis ganas, nena
pero no se donde voy
lo peor sera distinto y frio
en el dolor yo no se donde viajan las estrellas
sobre que piel debo ir a buscar las estaciones

F5 D5
A caso tienes olvidado ser el cielo
F5 D5
lo que no tienen son verdades para mi
F5 D 5
y puedo ver lo que hay detras de las ciudades
F5 D5
todo ese frio que arraza ha de venir

solo: la guitarra solo puntea, la base la hace el bajo
aunque se puede acompañar con La

Riff x 1

imbesil puedo llegar, por aca no hay estaciones
mas el camino esta empedrado de burladas cenicientas

lo que hay detras del dolor
no lo quieras volver a ver

hay que volver
que malas sombras hay en el camino aquel
que soluciones han traido estas verdades
nada puedo ver

final:

E|---------------------------------------------5--7-|
A|---5-5---6-6---7--5-5--6-6--7--5-5--6-6--7--------|
D|--------------------------------------------------| x-2
G|---------------------------------------------- ---|
B|--------------------------------------------------|
e|--------------------------------------------------|

E|--------------------------------------------------|
A|--------------------------------------------5--7--|
D|--5-5---6-6---7--5-5--6-6--7--5-5--6-6--7-------- |
G|---------------------------------------------- ---|
B|--------------------------------------------------|
e|--------------------------------------------------

E|---------------------------------------------5--7-|
A|---5-5---6-6---7--5-5--6-6--7--5-5--6-6--7--------|
D|--------------------------------------------------|
G|---------------------------------------------- ---|
B|--------------------------------------------------|
e|--------------------------------------------------|


F: D
E|-------------------|
A|---8-------5-------|
D|--10-------7-------|
G|--10-------7-------|
B|-------------------|
e|------------------ |



por cualquier duda, arreglo o modificacion mandenme
un mail a nikolato_87@hotmail.com o a ruta a 009 Km 10 reconquista