El Ojo Del Huracán

La Renga

Album: Detonador de Sueños
Genero: Pop

Tablatura (Ver letra)

INTRO:

D A B
e|-----------------------|-------------------------
B|-----------------------|-------------------------
G|-----------2-2---------|--------------------------
D|-----------0-0-2-2-4---|4-4-4--4-(3)-(2)-4-(3)-(2)
A|-5-(4)-(2)-----0-0-2---|2-2-2---------------------
E|-----------------------|------------------------

Repite 3 veces

luego Fa# y Sol (son seguillas las 2)
y despues de sol

e|------------------------------------------------
B|------------------------------------------------
G|-----------------------------------------------
D|--2-0-----------4-2---2-4-6-7-----------------
A|------2-0-2-----2-0---0-2-4-5-----------------
E|-----------------------------------------------

luego comienza a cantar en Re, como te quedo en el punteo
B
Cada cual pisa como quiere
G D
y tiene su razón de ser
D B
se sabe que el que carga con piedras
G D
dificil que se pueda mover.

A
Hazlas rodar los caminos de tierra
B
son lo mejor que tendran
A
Cada cual pisa como quiere, pero

ESTRIBILLO
D A B D A B
Por mas que quieras, dificil es llegar
D A B D A B F# G B A
no existe ciencia, mucho puede pesar.


D B
Quisieras que por fin tu ave
G D
la tormenta pudiera cruzar.
D B
Quisieras ver el sol mañana
G D
pero esa sombra sigue ahí detras.

A
Echa a volar los caminos del viento
B
son lo mejor que tendrás
A
solo tus alas precisa al intento, pero

ESTRIBILLO
D A B D A B
Por mas que quieras, dificil es llegar
D A B D A B F# G B A
no existe ciencia, mucho puede pesar.