El Monstruo Que Crece

La Renga

Genero: Pop

Tablatura

Aca le dejo el solo, ya que hasta ahora nadie lo habia puesto todavia.
Lo saque de oido asique fijense si sale bien!! Saquen los tiempos
escuchando la canción...


Solo [1:52]

E|----------------------------------------------------------
B|--12~~~~15p12-14p12---------------------------------------
G|--------------------15p14p12-12-14-14b-12h14h15p14-12-----
D|------------------------------------------------------14--
A|----------------------------------------------------------
E|----------------------------------------------------------

E|----------------------------------------------------------
B|----------------------------------------------------------
G|-----------------------12h14p12---------------------------
D|--12h14p12h14p12h14p12----------14------------------------
A|------------------------------------12h14p12h14p12h14p12--
E|----------------------------------------------------------

E|----------------------------------------------------------
B|----------------------------------12-----------15b--------
G|----------------------12----12-14-12----14b-12------------
D|----------------12h14----14----------14-------------------
A|--10h12p10-9-10-------------------------------------------
E|----------------------------------------------------------

E|----------------------------------------------------------
B|--------------------------17----17----17----20b--15s17----
G|--16p14h16-------------16----16----16----16---------------
D|-----------14p12-12h14------------------------------------
A|----------------------------------------------------------
E|----------------------------------------------------------


E|--15-17-17b-17b-17p15-17p15----------15-17-17-15h17p15----
B|----------------------------17-15s17----------------------
G|----------------------------------------------------------
D|----------------------------------------------------------
A|----------------------------------------------------------
E|----------------------------------------------------------


E|--14------------------------------------------------------
B|-----*17-17-17-15-15-15-12-12-12-13-13-13-----------------
G|----------------------------------------------------------
D|----------------------------------------------------------
A|----------------------------------------------------------
E|----------------------------------------------------------

*(se hace con tremolo)


Este es un aporte para los mismos de siempre, nada de caretas.
Aguante La Renga, la banda argentina que mueve más gente!!