El Juicio Del Ganzo

La Renga

Album: Esquivando Charcos
Genero: Pop

Tablatura (Ver letra)

Bueno aca les dejo la transcripcion de este temazo...
Lo saque yo y lo eh tocado muchas veces en vivo...
Espero q les sirva de ayuda y que lo pueda tocar a gusto

h = ligado ascendente
b = estirar
p = ligado descendete
~ = vibrato
r = estirar y volver

INTRO
G Em D

|---7--7--7-----------8-7-----|----------------------|
|---8--8---8--------8-----8---|-8--88----------------|
|---7--7----7-----7---------7-|-9--99---------7-7-9-7|
|---------------0-------------|-7--77---7--7h9-------|
|-----------------------------|----------------------|
|-----------------------------|----------------------|

G Em D

|--7--7--7-----------8-7-----|-------------------------|
|--8--8---8--------8-----8---|-8--88---------9---------|
|--7--7----7-----7---------7-|-9--99---9r--7---7-7h9-7-|
|--------------0-------------|-7--77-------------------|
|----------------------------|-------------------------|
|----------------------------|-------------------------|

C G C D

|--8-88-88--5--7-8-7--7--77--777-|----------------------------------7-|
|--5-55-55--5--5-5-5--8--88--888-|----------------------------------8-|
|--5-55-55--5--5-5-5--7--77--777-|--7-7-7-7-------------------------7-|
|--------------------------------|-----------9-7-5-5-------5-5-7-5----|
|--------------------------------|-------------------5-5h7------------|
|--------------------------------|------------------------------------|

RIFF
|-----------------------|
|-----------------------|
|-----------------------|
|-----------------------|
|--3-2-0--3-2-0---3-0---|
|-----------------------|



G Em D
De tanto andar por la cornisa
tal vez un día pueda caer.
C
de tanto confiarme
G
de mi suerte y mis conquistas,
C
en la percha de un bar
D
terminé después.

G Em D
De no aceptar el oficio de santo,
y por reírme de tu tonta canción de amor,
C G
de no transar ni con el cielo y el infierno,
C D
tal vez confisquen mi corazón.

A5 C5 G5 (Riff)
Y quién compartirá mi desconsuelo
y mi destierro de civilización.
quizás muera odiándote y entendiéndote a la vez,
A5 C5 G5
que de tanto que pude haber hecho por vos,
C D
entregues mi alma, al mejor postor.

De tanto jugar a la cigarra,
tal vez me sorprende el invierno,
de tanto fiarme de tener
alguien siempre a mano,
sin pan y sin torta, la fiesta termine tal vez.

Y uno recoge lo que siembra, dicen,
y es peligroso el barco sin timón,
pero quien ponga manos en este juicio,
nunca sabrá
que satisfecho el ganso murió.

Y quien compartira mi desconsuelo
y mi destierro de civilizacion
Quizas muera odiandote y entendiendote a la vez,
que de tanto que pude haber hecho con vos,
entregues mi alma, al mejor postor

Solo de guitarra:

E||-------------------|----------------------|------------------------|
B||-------------------|----------------------|------------------------|
G||-----------12h-14--|--14b---------14r-12--|--14--14b-------14r-12--|
D||-------------------|----------------------|------------------------|
A||-------------------|----------------------|------------------------|
E||-------------------|----------------------|------------------------|



------------------------|-----------8h-10--|--10b----10--8--7--10--10p8p7-|
------------------------|------------------|------------------------------|
--14p-12--11--9~-7------|------------------|------------------------------|
------------------------|------------------|------------------------------|
------------------------|------------------|------------------------------|
------------------------|------------------|------------------------------|



--8----7h-8--10p8p7-----------|------------------|---------------15--17--|
--------------------10p8p7----|------------------|-----------------------|
---------------------------9--|--7~----7~--7~----|--7~---7~--------------|
------------------------------|------------------|-----------------------|
------------------------------|------------------|-----------------------|
------------------------------|------------------|-----------------------|



--17b-----------17r-15--|--17--17b---------15--14--|
------------------------|--------------------------|
------------------------|--------------------------|
------------------------|--------------------------|
------------------------|--------------------------|
------------------------|--------------------------|



--17-15-14------------14h-15--17-|
------------17--15---------------|
---------------------------------|
---------------------------------|
---------------------------------|
---------------------------------|



--15-14-17-15-14-17-15-14-17-15-14-17-15-14-17-15-|
--------------------------------------------------|
--------------------------------------------------|
--------------------------------------------------|
--------------------------------------------------|
--------------------------------------------------|



--14-17-15-14-17-15-14-17-15-14-17-15-14-17-15-14-|--15--------7/-8--|
--------------------------------------------------|------------------|
--------------------------------------------------|------------------|
--------------------------------------------------|------------------|
--------------------------------------------------|------------------|
--------------------------------------------------|------------------|



--10p8p7--------------------------|-------------|--------------------|
---------10p8p7h10p8p7------------|-------------|--7---7/-8---8------|
-----------------------9p7---7-9--|--7--9----7--|--------------------|
---------------------------9------|-------------|--------------------|
----------------------------------|-------------|--------------------|
----------------------------------|-------------|--------------------|



--------------------------|---------------------|-------------------|
--------10--10----12--12--|--10--------8--------|--7----------------|
--------------------------|---------------------|---------7h---9----|
--------------------------|---------------------|-------------------|
--------------------------|---------------------|-------------------|
--------------------------|---------------------|-------------------|

Repeticion del INTRO y base del tema en el solo de saxo...

Bueno esta es mi primer transcripcion espero q la pueda disfrutar...
Aguante La Renga!! [73]LMDS[73]