Disfrazado De Amigo

La Renga

Genero: Pop

Tablatura

    Disfrazado de amigo


Intro: hacer vibrar el acorde E5(7mo traste)

E5 D#5

Riff 1:


A5 C5 D5
e|--------------------------|
b|--------------------------|
g|---2-2----------5--7------|
d|---2-2----------5--7------|
a|---0-0-3h0-2h0--3--5------|
E|--------------------------|


Riff 2: Riff 3: Riff 4:

e|-----------------|-----------------|-----------------|
b|-----------------|-----------------|-----------------|
g|-----------------|-----------------|-----------------|
d|----2-3-2---2-3--|----2-3-2---2----|----2-3-2---2----|
a|--5-------5------|--5-------5---5--|--5-------5---2--|
E|-----------------|-----------------|-----------------|


Riff 5:
e|--------------|
b|--------------|
g|--------------|
d|--------------|
a|-0-2-3-2-0-2--|
E|--------------|


Riff 6:
e|-------------------------------------------------------------------
b|-------------------------------------------------------------------
g|--2-2------5-5--7-7--9-9--10-10--12-12--7-7--10-10--5-5--9-9--4-4--
d|--2-2--------------------------------------------------------------
a|--0-0-2-2----------------------------------------------------------
E|-------------------------------------------------------------------



----------|
----------|
--9~~~~---|
----------|
----------|
----------|






Base riff 1

Yo sé que esta vez,
no hay tiempo para delirio.
Y lo que estás por ver,
es el hecho de los designios.
Subiendo inclinaré,
mi humildad por lo que vivo.


Base riff1
Para poder saber,
Riff2
que no hay nada que impida hoy;

Riff3 Riff4
quitar la máscara de aquel,
Riff5
que va disfrazado de amigo.

Riff6

Base riff1

Parece tan real,
como un tonto lo he creído;
pero la farsa, ves,
se ha salido de los estribos.
Al fin encontraré,
la mañana que trae alivio,

base riff1
para poder saber;
Riff2
que no hay nada que impida hoy,
Riff3 Riff4
quitar la máscara de aquel,
Riff5
que va disfrazado de amigo.

Riff6

Solo sobre:Riff1-Riff2-Riff3-Riff4-Riff5
Riff6

Base riff1

Yo sé que esta vez,
no hay tiempo para el delirio.
Y lo que estás por ver,
es el hecho de los designios.
Subiendo inclinaré,
mi humildad por lo que vivo.

Base riff1
Para poder saber,
Riff 2
que no hay nada que impida hoy;
Riff3 Riff4
quitar la máscara de aquel,
Riff5
que va disfrazado de amigo.
Riff6

Riff1

D5 y termina en A5



Bueno aca esta este temazo..espero que les sirva!!!