Desoriente Blues

La Renga

Genero: Pop

Tablatura

Parte 1

G|----------------------------------------------|
D|------5-3--------------------53---------------| x4
A|-5-5------5-5-------3-5-5------53-------------|
E|---------------3h5----------------5-0/10------|

Parte 2

cada paso que me alejo...

G|----------------------------------------|
D|----------------------------------------| x2
A|-----5-----------------5-3------5-------|
E|-5h7---7-----5-5-4-3-------5-3----------|


Parte 1 x2


Parte 3

G|---------------------------------------|
D|---------------------------------------| x4
A|-----------77-55-44-3------------------|
E|-x5-7-8-10-----------------------------|


las coordenadas no tienen sentido...

Parte 1 x2
Parte 2 x2
Parte 1 x2
Parte 3 x4
Parte 1 x2
Parte 2 x2
Parte 1 x2
Parte 3 x4


G|-------------------------------|
D|-8-7-5-------------------------|
A|-------7-53/5-----------------|
E|---------------5----5----------|

G|----------------------------------------|
D|----------------------------------------|
A|--50--00550--00550--0055055x-5x-5-------|
E|----------------------------------------|


G|-------------------------|
D|-------------------------| x7
A|--50-55543---------3h5---|
E|-----------543-3h5-------|

G|-----------------|
D|-----------------|
A|--50-55543-------|
E|-----------543---|

Parte 3 x4

Final

G|----------------------------------------|
D|----------------------------------------|
A|--5x---5------55555555555555555/13--5x--|
E|----------------------------------------|

GRANDE TETE!!
-LoZA-