Cuando Vendrán

La Renga

Album: Despedazado por Mil Partes
Genero: Pop

Tablatura (Ver letra)

iNTRO:
F# A
--------------------------------
--------------------------------
-------------------2------------
--------4----------2------------
--4-3-0-4----4-3-2-0------------
--------2-----------------------

Repite este RiFF 4 veces y sale:

A B
Es que la muerte est tan segura de vencer
G D A
que nos da toda una vida de ventaja.
A B
Tu empresa lider funciona bien en el caos
G D A
inventando analg\'sicos para poder seguir.
A
Cuando el mundo no tiene respuesta
B
o se vuelve incomprensible
G D A
yo sigo ac , insoportablemente vivo.


Repite el RiFF de la iNTRo 2 veces

A B
Si del principio hubiera aprendido a ser un animal
G D A
hoy tendria un instinto noble a cambio de esta pena
A B
y si la ruta me va dejando sin aliento
G D A
ser que un buscador nunca llegar a destino.

A
Cuando el mundo no tiene respuesta
B
o se vuelve incomprensible
G
recuerda que un guerrero
D A
toma todo como un desaf­o

Riff x2

E
Cu ndo vendr n los d­as de sol
A
y no tener esa nube en el cielo.
E
Cu ndo vendr n las noches de estrellas
A
y no tener m s mi casa ese techo.
E
Cu ndo vendr la canci½n primitiva
D7 A
y no tener m s sobre mi coraz½n una cabeza.

Solo: Base (Intro)x2 ---(A B G D A)x2

---------------------------------------------------------------
------------------------5--------------7-5---------------------
---2-4-4^--4^2----2-4^----4--2->5--5-6-----6-5--2----2-4-4^^---
-4-------------4----------------------------------4------------
---------------------------------------------------------------
---------------------------------------------------------------

------------------------------------------------------------
-13^--13^-11----11-----13^-13^-11-----11--15^-15-13----13---
-------------12----12-------------12----------------14------
------------------------------------------------------------
------------------------------------------------------------
------------------------------------------------------------

---------------------------------------------------------------
--------13---------13--------13----15^-13----13--15^-13-----13-
-12->14-----12->14----12->14--------------14------------14-----
---------------------------------------------------------------
---------------------------------------------------------------
---------------------------------------------------------------

---------------------------15^-15^--12-------------------------
--15^--13------15^--13------------------15--13----13-15^-15----
----------14------------14---------------------14--------------
---------------------------------------------------------------
---------------------------------------------------------------
---------------------------------------------------------------

---------------------------------------15-----------------
-13----13-----13--15^-15-13-----13-15^----13-----15--13---
----14----14----------------14---------------14-----------
----------------------------------------------------------
----------------------------------------------------------
----------------------------------------------------------

-------------------------------------------
----15--13-----------------12--12^---------
-14---------14----11---14------------------
-------------------------------------------
-------------------------------------------
-------------------------------------------

Estribillo

Riff 2

B D
--------------------------------
-------------------2------------
--------4----------2------------
--4-3-0-4----4-3-2-0------------
--------2-----------------------
--------------------------------

Riff 2 x4

----------
----------
--------4-
--4-3-0-4-
--------2-
----------


Fin.


El Peludo de Moron