Cualquier Historia

La Renga

Album: Truenotierra
Genero: Pop

Tablatura (Ver letra)

Intro:

Riff 1
|------------------------|
|------------------------|
|-7-7----5-5----3-3----2-|
|-x-x----x-x----x-x----2-|
|-5-5----3-3----1-1----0-|
|------------------------|


Am
Contar uno por contar
C G
Cuenta cualquier historia
Am
Pero quien puede alto trepar
C G
Por las ramas de la memoria
Am
Cuando fue que fue el final
C G
Para que el hoy haya comenzado
Am
Pues esta es la turbia realidad
C G
La que hemos imaginado
D5 A5
Oh... imaginado
D5 A5
Oh... imaginado

Verdad cual es la verdad
Este mal sueño nos ha atrapado
Si hay un derecho hay un revés
Solo es cuestión de imaginarlo
Después el mundo se hace de una vez
Hasta morir por intentarlo
Sólo por eso y porque cada día
Quiero vivir alucinado
Oh... alucinado
Oh... alucinado

Riff 2:
|-------------------------|
|-------------------------|
|-------------------------|
|-------------------------|x4
|-3-0-----------0-3-0-----|
|-----3-0---0-3-------3-0-|
(eso y va haciendo arreglos
en el final de cada uno)

(Solo de Wha Wha)

Riff 1

Verdad cual es la verdad
Este mal sueño nos ha atrapado
Si hay un derecho hay un revés
Solo es cuestión de imaginarlo
Oh... imaginarlo...
Oh... alucinado...
Oh... imaginado...
Oh... alucinado...

(Otro Solo de Wha Wha)


----------------------------------------------------------------
Los Acordes son:
Am C G D5 A5
|-0-|-0-|-3-|---|---|
|-1-|-1-|-0-|---|---|
|-2-|-0-|-0-|---|-2-|
|-2-|-2-|-0-|-7-|-2-|
|-0-|-3-|-2-|-5-|-0-|
|---|---|-3-|---|---|

saludos para toda la banda Renga...