Corazón Fugitivo

La Renga

Album: Pesados Vestigios
Genero: Pop

Tablatura (Ver letra)

Intro:
e|-----------------------|
b|-----------------------|
g|-----------------------|
d|-2-2-2-------------2---|
a|-2-2-2-4-4-0-------2---|
e|-0-0-0-------4--2--0---|x4
PM.
Verso:
|----------------------------------------------|
|----------------------------------------------|
|----------------------------------------------|
|-4--4-4--4--4-4--4-4-4--6--6-6--6--6-6--6-6-6-|
|-2--2-2--2--2-2--2-2-2--4--4-4--4--4-4--4-4-4-|
|----------------------------------------------|
PM ... ... . ... ... .

|----------------------------------------------|
|----------------------------------------------|
|----------------------------------------------|
|-4--4-4--4--4-4--4-4-4--6--6-6--6--2-2-2-2----|
|-2--2-2--2--2-2--2-2-2--4--4-4--4--0-0-0-0----|
|----------------------------------------------|
PM ... ... .

Estribillo:
|----------------------------------------------|
|----------------------------------------------|
|----------------------------------------------|
|-4--4-4--4--4-4--4-4-4--6--6-6--6/7-6-4-------|
|-2--2-2--2--2-2--2-2-2--4--4-4----------7-----|
|----------------------------------------------|x3


|------------------------------------5-5--|
|-------------------------------------5-5-|
|-----------------------------------------|
|-4--4-4--4--4-4--4-4-4--6--6-6--6--7-----|
|-2--2-2--2--2-2--2-2-2--4--4-4--4--7-----|
|-----------------------------------5-----|

Puente:

|----------------|-----------------------| |
|----------------|-----------------------| |
|----------------|-----------------------| |
|-6-6-4h6p4p0-4p2|x2---------------------|x2 |x2
|-4-4------------|-----2-2--2h4p2p0-2p0--| |
|----------------|-----0-0---------------| |

|-------------------|-----------------------| |
|-------------------|-----------------------| |
|-------------------|-----------------------| |
|------4-4h6p4p0-4p2|x2---------------------|x2 |x2
|-4444-2------------|--------2-2h4p2p0-2p0--| |
|-------------------|---0000-0--------------| |

Verso:
B5 C#5
Escapando en la noche voy a dejarlo todo atrás
B5 C#5 A5
Como un polizón esperando en el frío de la terminal
B5 C#5
Oh mi alma solitaria tendré que irte a buscar
B5 C#5 A5
Escapando en la noche nadie nos encontrará

Estribillo:
B5 C#5
Hielo en la madrugada
B5 C#5
La fría ruta del mar
B5 C#5
Un corazón que se escapa
B5 C#5 A5
No lo quieras enjaular

Intro: X2

Verso:

Cuando pase la tormenta, nada nos detendrá

Perdido al sur de aquellas playas, arenas en la soledad

Corazón fugitivo, tendré que irte a buscar

Escapando en la noche, nadie nos encontrará


Estribillo:

Hielo en la madrugada

La fría ruta del mar

Un corazón que se escapa

No lo quieras enjaular

Intro: X2

Puente

Solo

Hielo en la madrugada

La fría ruta del mar

Un corazón que se escapa

No lo quieras enjaular, nooooo.