Caricias De Asfalto

La Renga

Genero: Pop

Tablatura

Hice la corrección, estaba mal la letra.

Intro
e||-----------------------------------------||
B||-----------------------------------------||
G||--2----------5--2--------2---------------|| x4
D||--2----4-----2--2-4--4---2---------------||
A||--0-00-0-----0--0-0--0---0---------------||
E||-----------------------------------------||


riff(sobre A)
e||-----------------------------------------||
B||-----------------------------------------||
G||--2--------5---2-----2-------------------||
D||--2--4-----2---4-----2-------------------||
A||--0--0-----0---0-----0-------------------||
E||-----------------------------------------||


A5 + riff F#5 D5 A5
Caricias,oscuras,caricias oscuras,llenas de dolor,
A5 F#5 D5 A5
arden,calientes,caricias dementes,queman por pasion,
A5 F#5 D5 A5
oscuras de fuego,caricias de fuego, llenas de amor.

D5 E5
Tu cuerpo si que quema, nena,
A5 F#5
cuando quieres rockear,
D5 E5 A5 F#5
sacándome a la pista para hacerme probar
D5
caricias de asfalto.

A5 + riff F#5 D5 A5
Oscuras ,ardientes,caricias calientes,llenas de pasion,
A5 F#5 D5 A5
arden de fuego,caricias del suelo, llenas de amor.

D5 E5
Tu cuerpo si que quema, nena,
A5 F#5
cuando quieres rockear,
D5 E5 A5 F#5
sacándome a la pista para hacerme probar
D5
caricias de asfalto.

Solo...

A5 + riff F#5 D5 A5
Caricias,oscuras,caricias oscuras,llenas de dolor,
A5 F#5 D5 A5
arden,calientes,caricias dementes,queman por pasion,


D5 E5
Tu cuerpo si que quema, nena,
A5 F#5
cuando quieres rodar,
D5 E5 A5 F#5
sacándome a la pista para hacerme probar
D5
caricias de asfalto.

A5 + riff.