Buseca Y Vino Tinto

La Renga

Genero: Pop

Tablatura


Primera guitarra:Punteo
Segunda Guitarra:Base con (la-re-la-la-mi)

A D lA
E-3h5-5----3h5-5----3h5-5----3h5-5-------------------------------------------------
B-3h5---5--3h5---5--3h5---5--3h5---5-----------------------------------------------
G--------------------------------------3h7-3h7-3h7---------------------------------
D--------------------------------------3h7-3h7-3h7--9-7-----3h7-3h7-3h7------------
A------------------------------------------------------9-7--3h7-3h7-3h7--9-7-------
E----------------------------------------------------------------------------9--7--
A* E*
E----------------------------------------------------------------------------------
B----------------------------------------------------------------------------------
G----------------------------------------------------------------------------------
D-----7----7----7----7-----2------2-----2-----2------------------------------------
A-----7----7----7----7-----2------2-----2-----2------------------------------------
E-----5----5----5----5-----0------0-----0-----0------------------------------------

Tocan las dos guitarras juntas (La*-mi*)

A5
Sirvió un menú muy complicado
A5
entre narcisos y playboys

D5 2da Guitarra:D*
que vomitaba la pantalla Argentina,

E7 D5
aflojando el almidón del cogote

A5 2Da Guitarra: Punteo
para poder tragar.

(Primera Guitarra Igual que en el primer verso)

Dio la receta rebuscada,

de una torta color caca
2da Guitarra: D**
para el té poder acompañar,

aflojando el cinturón al chancho
para no reventar.

D5 2Da Guitarra: D***
Y yo me quemo hasta los dientes,
mi manjar está caliente,

A5 2Da Guitarra:A5 + Punteo*
ya se cocinó la realidad.
E7
Vamos todos a la mesa,
D5 A5
que esta noche vamos a cenar

D5
Buseca y vino tinto
A5
buseca y vino tinto
D5
Buseca y vino tinto
A5
buseca y vino tinto
E7
Esta noche, nena
D5 A5
te invito a morfar.

Solo: Primera Guitarra

Segunda Guitarra con los tonos siguientes:

A D

--3h5-5--3h5-5---3h5-5--3h5-5---------------------------------------------------------------
--3h5--5-3h5--5--3h5--5-3h5---5-------------------------------------------------------------
--------------------------------/ 7b7b7b-5--5-7b-5-7-3h5-5-7^b-5b-5b-5b-7^b-5b-7^7-5---5-7--
------------------------------------------7----------3h5-----------------------------7------
--------------------------------------------------------------------------------------------
--------------------------------------------------------------------------------------------
A E7

-------------------------/-15-15-17-15-17-15-17-15-17-15-17-15-17-15-17-15-17---
--------------------------------------------------------------------------------
--------------------------------------------------------------------------------
---7--7--7--7--7---como---------------------------------------------------------
---7--5--7--7--7---tapando------------------------------------------------------
---5--5--5--5--5----------------------------------------------------------------

D5
A5
--------------------------------------------------------------------------------
15-17-15-17-15-17-15-17-15-17-15-17-15-17-15-17-15-17---15^15^15^15-------------
--------------------------------------------------------------------------------
------------------------------------------------------------------------2-------
------------------------------------------------------------------------0-------
--------------------------------------------------------------------------------

Pidió postre con cereza,
delicada la burguesa,
y anunciaba un lindo comercial,
que donaría las sobras
y los huesos a la prosperidad.

Contrataron a dos chinos
pa\'endulzar el apellido,

2Da Guitarra: D**
¡ hay, divina alta sociedad !
que eructaba con la panza
llena de felicidad.

Y yo me quemo hasta...

Buseca...
esta noche nena te invito a morfar

A5
Buseca y vino tinto como con alta voz

D5
Buseca y vino tinto
A5
Buseca y vino tinto
D5
Buseca y vino tinto
A5
Buseca y vino tinto
E7 D5 A5
Esta noche Mirtha,te invito a morfar.


Segunda Guitarra Punteo Final

----------------------------------------------------------------------------------------
-----7--6--5----------------------------------------------------------------------------
-/-8--7--6--5-/-7^-7-5-5----5-7-5-7-5-7-5-7-5-7-5-7-5-7-5-7-5^-5------------------------
---------------------------------7-----------------------------------7-5----7-----------
-------------------------------------------------------------------------7--7-----------
----------------------------------------------------------------------------5-----------

Tonos:
D*
---7-----
---7-----
---7-----
---------
---------
Punteo

---15^-p-15^p-15^p15^p-15^p-
----------------------------
----------------------------
----------------------------
----------------------------
----------------------------

D**

--------------------------
--------------------------
--7----77----7----7-------
--7-9--77-9--7-9--7--9----
----9-----9----9-----9----
--------------------------

D***

-------------------
---7^--7^-7^-7^----
---7^--7^-7^-7^----
-------------------
-------------------
-------------------

A5 + Punteo*

----------------------------------------
----------------------------------------
-------------------------2----4---2-----
-2---4----2----4---2--------------------
-0---0----0----0---0--------------------
----------------------------------------

Final

ESTA ES EL PRIMER TEMA QUE PASO ESPERO QUE SUENE.
BUENO OJALA QUE PUEDAN RECONSTRUIR EL PRINCIPIO DE LA RENGA
CHE, ESTA BUENO SACAR LA SEGUNDA GUITARA, YO YA SAQUE LA
2DA GUITARRA DE VARIOS TEMAS DE ESQUIVANDO CHARCOS
DESPUES LAS VOY A PASAR. SI SACAN LAS 2DAS GUI.
PASENLAS CHAU GRACIAS DE TODO CORAZON.

Diego de LOMAS DE ZAMORA.