Blues Cardíaco

La Renga

Album: A Dónde Me Lleva La Vida
Genero: Rock

Tablatura (Ver letra)

INTRO:

e----------------------------------------------------------
B-----------------------------------------5----------------
G-----5-8-7-5---8-7-5-----------5-8-7-5-----8-7-5----------
D-5-7---------7-------5-7--5--7---------5---------7--5-----
A----------------------------------------------------------
E----------------------------------------------------------

e-----------------------------------------------------------
B-----------------------------------------------------------
G---5-8-7-5---8-7-5-----------5-8-7-5---8-7----7-5-7-5-7---
D-7---------7-------5-7--5--7---------7--------7-5-7-5-7---
A-----------------------------------------------------------
E-----------------------------------------------------------

e-----------------------------------------------------------
B-2-2------------5-5-5-8--5/--------------------------------
G------7-5-7-5------------------------------5---------------
D--------------7--------------7-5-7-5-7-5-7---7-5-7-5-7-5---
A---------------------------------------------------------7-
E-----------------------------------------------------------

e--------------------------------
B--------------------------------
G---------------5----------------
D-7-5-7-5-7-5-7---7-5-7-5-7-5----
A-----------------------------7--
E--------------------------------


RIFF
e-----------------------
B-----------------------
G-----------------------
D-----------------------
A-----------3-----------
E-5-3-5-3-5---5-3-5-3-0-

RIFF
Para ser un tipo educado
me pusieron a estudiar
me mandaron a un privado
y despues al hermoso induntrial.


D5 D5-C5-D5 A5
Sin embargo, no aprendi nada
D5 D5-C5-D5 A5
Sin embargo, no aprendi nada
C5 E5 RIFF x2
Pero a pesar de todo encontre mi lugar.


Para ser un buen ciudadano
me enseñaron a desfilar
a no mirar a los costados
y a seguir el rataplan.


Sin embargo, perdia el paso
sin embargo, perdia el paso.
Pero a pesar de todo encontre mi lugar.


Para saborear la vida
me dijeron a laburar
a sentir el frio en mis manos
y a mi espalda oirla quebrar.


sin embargo, nada valia nada
sin embargo nada vale nada
Pero a pesar de todo encontre mi lugar.


SOLO:A5 G5-A5 [D5 A5 D5 A5 C5 E5 RIFFx2] RIFFx2

SOLO BATERIA


D5
figuritas, medallitas y diplomas
A5
este sistema no me supo enamorar
D5
pero el tiempo no pasa en vano,
A5
y la vida solo me sirvio
C5 E5
para encontrar mi lugar
FINAL
y pudrirme en mi rocanrol.


FINAL
e-------------------
B-------------------
G-------------------
D-------------------
A-------------------
E-5-3-5-3-5-3-5-----


DUDAS, COMENTARIOS, CORRECCIONES A: dosmasdostres@fullzero.com.ar