Algún Rayo

La Renga

Album: Algún Rayo
Genero: Pop

Tablatura (Ver letra)

INTRO

D5 C5 B5
E|------------------|
B|------------------|
G|---7-7--7-7-5-4---| x8
D|---7-7--7-7-5-4---|
A|---5-5--5-5-3-2---|
E|------------------|

VERSO ( D5 con pedal)

El niño está en la vereda
esperando por el sol
y aunque ya no habrá mañana
siempre espera algún rayo

INTRO x8

VERSO

Planeta de la fantasía
quiere volver a aspirar
hasta que el sueño es pesadilla
y el día nunca más vendrá

INTRO x4

RIFF

E|------------------------|
B|------------------------|
G|------------------------| x12
D|---7-7-7----------------|
A|---7-7-7--3h4h5-3h4h5---|
E|---5-5-5----------------|

ESTRIBILLO (igual que intro)

D5 C5 B5
Después de la llegada
de la nueva tempestad
oye tendrás tu rayo
oye cómo verás

Después que la vereda
empiece a resquebrajar
habrán tomado conciencia
de tanta profundidad

D5 (con pedal)

D5 C5 B5
Unidos por la sombra
van todos a suplicar
pedazo de fantasía
que les diga la verdad

El niño está en la vereda
esperando por el sol
y aunque ya no habrá mañana
siempre espera algún rayo

D5 con pedal

Un rayo... un rayo...

FINAL

Riff x8
Intro x12