Ahi Están

La Reforma

Genero:

Tablatura

e|----22---55--55--33---------------|
B|----33---77--55--33---------------|
G|----44---77--66--44---------------|
D|----44---77--77--55---------------| ska/reggue (pero que importa que tengan el control...)<<
A|----22---55--77--55---------------| ( donde quiera que ...)
E|-------------55--33---------------|

( ahi estan!! yanquis yanquis!!!)punk rock (coro)
e|--------|------------------------------|--------------------------|
B|--------|------------------------------|--------------------------|
G|--------|-------------77---------------|-------------777----------| x= PM
D|---5555-|-----99--55--77-77------------|---999--555--777--777-----|
A|---5555-|-----99--55--55-77------------|---999--555--555--777-----|
E|---3333-|-----77--33-----55------------|---777--333-------555-----|
PMx xx xx xx xx

e|-----------------------------------------------|
B|-----------------------------------------------|
G|-----------------------------777---------------|
D|------9---9---9---9-----555--777---------------| x 2 ( despues del 2 ska)
A|------9---9---9---9-----555--555---------------|
E|------7---7---7---7-----333--------------------|
PMx xx xx

ahora con pm y soltandolo

e|----------------------------------|
B|----------------------------------|
G|---------------------------------------- 777---------------|
D|------9xxx---9xxx---9xxx---9xxx-----555--777---------------| x 2
A|------9xxx---9xxx---9xxx---9xxx-----555--555---------------|
E|------7xxx---7xxx---7xxx---7xxx-----333--------------------|
PMx xx xx

Solo!! la base son los acordes del coro .
>> = vibrato ^ = ligado
e|---------------------------------------------------------10-12-10-12-10-12-10-12^12-10-------------10--------10--------------------|
B|------------------------10------------10-12-10-12-10-12----------------------------------12--12-12----12-12-----12-10--------------|
G|---------------7---7-9-----11-9-11--------------------------------------------------------------------------------------9-11-11----|
D|--------5-7/9---9------------------------------------------------------------------------------------------------------------------|
A|---5-7-----------------------------------------------------------------------------------------------------------------------------|
E|-----------------------------------------------------------------------------------------------------------------------------------|

e|-----------------------------------------------10------------------------------------------------------------------------------|
B|----------------------------10-12-10-12-10-12-----12-12-12>>-------------------------------------------------------------------|
G|---9-11-9-11-9-11-9-11----------------------------------------------------------------7---7-9-9^9-7----------------------------|
D|----------------------------------------------------------------------------------7-9---9-------------9-7----------------------|
A|-----------------------------------------------------------------------------7-9-----------------------------------------------|
E|------------------------------------------------------------------------7-10-------------------------------10------------------|

e|--------------------------------------------------------------------------------------------------------------------------------------|
B|----------------------------------------------------12-14-14-15-12-10-12-10---10------------------------------------------------------|
G|-------------------7---7-9-9^999-9---12/14-14-------------------------------11----11-9-11-9-11-9-11-7-9-7-9-7-9-7-9-------------------|
D|--------------7-9---9-----------------------------------------------------------------------------------------------7-9-7-9-7-9-9>>---|
A|----------7-9-------------------------------------------------------------------------------------------------------------------------|
E|----7-10------------------------------------------------------------------------------------------------------------------------------|

(el paro es con los acordes del coro)


e|----22-----------------|
B|----33-----------------|
G|----44-----------------| guitarra clean para entrar en punk rock
D|----44-----------------|
A|----22-----------------|
E|-----------------------|

(punk rock con acordes del coro)

e|----22---33--55--55---------------|
B|----33---33--77--55---------------|
G|----44---44--77--66---------------|
D|----44---55--77--77---------------| ska/reggue final
A|----22---55--55--77---------------|
E|---------33--55--55---------------|

Letras La Reforma- Ahi estan

Pero que importa que tengan el control de nuestra cooltura y de nuestra nacion
pero ke importa la dolarizacion de nuestro dinero y que pierda su valor(bis)

Donde quiera que alla un pueblo que su cultura se este por acabar
donde quiera que allan ocupado una ciudad sin derecho a protestar
donde quiera que hagan una guerra con la excusa de hacer la paz
donde quiera que alla una fuente para sus rikesas poder alimentar.

Ahi estan!!! Yanquis Yanquis!!!....

Desde la gran farza de la colonizacion, hemos sido victimas
de esta gran represion, independencias que no tienen el poder
frente al imperio llamado iuesei(USA) nuestra cultura nos a sido arrebatada
su cultura nos a sido implantada, ellos controlan el famoso cienen(CNN)
lo que sucede realmente no lo ves!!!!

Pero que importa la dolarizacion de nuestra dinero y que pierda su valor


http://www.punkdominicano.com/LaReforma www.lareforma.tk