1965

La Reforma

Genero:

Tablatura

e|------------------------------------------|
B|------------------------------------------|
G|----44---77-------------------------------|
D|----44---77---55--77-55-77----------------| x 3
A|----22---55---55--77-55-77----------------|
E|--------------33--55-33-55----------------|

e|------------------------------------------|
B|------------------------------------------|
G|----44---77-------------------------------|
D|----44---77---55--44----------------------| x 1
A|----22---55---55--44----------------------|
E|--------------33--22----------------------|

e|------------------------------------------|
B|------------------------------------------|
G|----44---77-------------------------------|
D|----44---77---55--77----------------------| x 2 ( guitarra sola muteo(PM) rapido)
A|----22---55---55--77----------------------|
E|--------------33--55----------------------|


e|------------------------------------------------------------------|
B|------------------------------------------------------------------|
G|----44---77-----------------------55------------------------|
D|----44---77---55--77--55--77--55--55------------------------| x 4
A|----22---55---55--77--55--77--55--33------------------------|
E|--------------33--55--33--55--33--------------------------- -|
PM(x) xxxxxxxxxxxxxx

parte cantada(una revolucion....)

e|------------------------------------------|
B|------------------------------------------|
G|----44---77-------------------------------|
D|----44---77---55--77----------------------| x 4
A|----22---55---55--77----------------------|
E|--------------33--55----------------------|

e|------------------------------------------|
B|------------------------------------------|
G|----44-44-44-44-44-44-44------------------|
D|----44-44-44-44-44-44-44------------------| x 1 Paro antes del coro
A|----22-00-22-00-22-00-22------------------|
E|------------------------------------------|

Coro (Revolucion,Revolucion!!!!)
e|------------------------------------------|
B|------------------------------------------|
G|----44---77-------------------------------|
D|----44---77---55--77----------------------| x 4
A|----22---55---55--77----------------------|
E|--------------33--55----------------------|

e|--------------------------------------|
B|--------------------------------------|
G|--------------------------------------|
D|------55--77--55--77------------------| x 1
A|------55--77--55--77------------------|
E|------33--55--33--55------------------|

e|------------------------------------------|
B|------------------------------------------|
G|----44---77-------------------------------|
D|----44---77---55--77-55-77----------------| x 4
A|----22---55---55--77-55-77----------------|
E|--------------33--55-33-55----------------|

Paros

e|-------------------------------------|
B|-------------------------------------|
G|----44---------55--------------------|
D|----44--55--77-55--------------------|
A|----22--55--77-33--------------------|
E|--------33--55-----------------------|

Punteo
e|-------------------------------------|
B|-------------------------------------|
G|-----------------------------------------------------------------------|
D|--4---------------------------------------------------7----------------|
A|--2--2-4-5-4-2-4----5--2-4-5-4-2-4---7--2-4-5-4-2-4---5--4-5-7-5-4-5---|
E|-----------------------3------------------ 5---------------------------|


final (parte del muteo)PM

e|------------------------------------------|
B|------------------------------------------|
G|----44-44--77--77-------------------------|
D|----44-44--77--77-55m--77m----------------| x 3
A|----22-22--55--55-55m--77m----------------|
E|------------------33m--55m----------------|

e|----------------------------------------|-----------------|
B|----------------------------------------|-----------------|
G|----44-44--77--77------77-------77--44--|-44--77------44--|
D|----44-44--77--77-55---77---55--77--44--|-44--77--55--44--|
A|----22-22--55--55-55---55---55--55--22--|-22--55--55--22--|
E|------------------33--------33----------|---------33------|


Letras: La Reforma - 1965 Album: Ahi Estan

Una revolucion vamos a realizar tenemos el armamento tenemo el ideal
tenemos todo el pueblo cansado de aguantar, tanta injustica y tantan falcedad
vamos a peliar por nuestra libertad agarra una granada o empieza a disparar
que no tenemos miedo no nos vamo a retirar, hasta terminar con tu mediocridad

Revolucion unete a luchar empuña tu cañon
ya estamos hartos de tanta represion
tu maldita democraxia no es la solucion
el pueblo unido se aclama vencedor
Alxa tu bandera frente al invasor, escupele
en la cara sin ningun temor.
Discurso.( solo en demo, no incluido en la version del cd)

1965 el pueblo dominicano se alza en armas frente a la ocupacion
yanqui ahora es momento de recordar a todos aquellos que lucharon
por nuestra soberania, seguiremos el ejemplo de todos ellos, de todo el IJ4 y de
Francisco Alberto Caamaño.