Desobedece

La Raza

Album: Cambio O Destrucción
Genero: Rock

Tablatura (Ver letra)

Bueno como vi que no habia nada de LA RAZA ...
una buena banda que no es de mi epoca por cierto ...
pero si tengo mucha referencia de ellos ...
pues entonces quise compartir esta cancion que saque ...
espero que este bien =S ... ya ustedes pongan el ritmo
y todo eso ... hasta luego ...

E|-----------5-7-|/
B|-5-6-5-6-8-----|/
G|---------------|/
D|---------------|/
A|---------------|/
E|---------------|/

E|---------------------------------------|/
B|---------------------------------------|/
G|---------------------------------------|/ las veces que
D|---------------------------------------|/ sea necesario
A|---7-7---7-7---7---7h8-8-8---8-8---8-8-|/
E|-0-----0-----0---0---------0-----0-----|/

(Em - F) … tambien las veces que sea necesario

Em F / Otra vez las veces
DESOBEDECE ... DESOBEDECE / que sea necesario

Em /
Desobedece que la raza crece / Las veces que
F / sea necesario
Desobedece que la raza crece /

Luego se repite lo del bajo ...

E|---------------------------------------|/
B|---------------------------------------|/
G|---------------------------------------|/ Hasta que
D|---------------------------------------|/ termine la
A|---7-7---7-7---7---7h8-8-8---8-8---8-8-|/ cancion
E|-0-----0-----0---0---------0-----0-----|/

Tal vez ya se dieron cuenta =P ... pero no me se muy bien los tiempos ...
pero creo que esta todo correcto ... asi que alguna duda, correcion
o yo que se ... a mi correo luis_inmago@hotmail.com ...
y nada mas pues ... un saludo especial para mi primo dick ...
que es mi maestro de guitarra =P ...

. . . < < < I n M a G o > > > . . .