Mi Mujer

La Rana

Genero:

Tablatura

Estas son las notas de la cancion pero tambien es el
arpegio de todas las estrofas exeptuando el bajeo del
final que solo lo lleva en el intro y al final


G D Am C
E/-4---------4/-2---2h3h2---/-----0------/------0----/
B/--3----3----/---3------3-0/-1----------/-1-------0-/
D/---0----0---/----2------2-/--2---2-----/---0---0---/
G/---------0--/-0-----------/---2---2----/--2-----2--/
A/------------/-------------/-5-------0-2/-3---------/
E/-4-----4----/-------------/------------/-----------/


G D Am C
E/-4---------4/-2---2h3h2---/-----0------/-----------/
B/--3----3----/---3------3-0/-1----------/------0----/
D/---0----0---/----2------2-/--2---2-----/---0-2-----/
G/---------0--/-0-----------/---2---2----/--2--------/
A/------------/-------------/-5-------0-2/-3--2--3-2-/
E/-4-----4----/-------------/------------/----------3/

El tiempo no ha pododo ocultar
lo que llevas dentro
Y hoy la luna cede su lugar
para decir lo que siento
Pretendo decirte y hacerte ver
que el que no te merece soy yo

Quise olvidarte y estos versos deje
pero ya ves que he vuelto por ti

De ti yo jamaz alejo mi alma
alma de aliento de anelo de fe
Por ti yo me pierdo me pierdo en las ganas
ganas de verte y hacerte mujer

E mujer heeee


No quiero que expliques el no puede ser
ya mucho daño ha causado
Ocultas el cielo en tu forma de ver
y en tu caricia el pasado
Nesecito el abrazo que solo tu das
que despeja de mi alma el temor

Y cuando estoy con tigo me distraigo tanto
que aveces olvido respirar

De ti yo jamaz olvido tus labios
labios que siento y enchinan mi piel
Sin ti yo me enfermo me enfermo de celos
celos del frio que te hace estremecer

heee ehehheheh

Por ti
De ti yo jamaz alejo mi alma
alma de aliento de anhelo de fe
De ti yo jamaz olvido tus labios
labios que siento y enchinan mi piel
Sin ti yo me pierdo me pierdo en las ganas
ganas de verte y hacerte ....

Mujer .. mi mujer hehehehe