Una Selva Asesina

La Raíz

Genero: Rap

Tablatura

Intro:

e--2h3h2h0h2------2-7-5---0------2h3h2h0h2-----------
B-------------0-3-------3-------------------0-3-5-2--
G----------------------------------------------------
D----------------------------------------------------
A----------------------------------------------------
E----------------------------------------------------

Bm G A Bm G D

e--2h3h2h0h2------2-7-5---0------2h3h2h0h2------2-7-9-5-3--
B-------------0-3-------3-------------------0-3------------
G----------------------------------------------------------
D----------------------------------------------------------
A----------------------------------------------------------
E----------------------------------------------------------

Bm G A Bm G-A-F#

e--2h3h2h0h2------2-7-5---0------2h3h2h0h2---------------
B-------------0-3-------3-------------------0-3-5-2-(s5)-
G--------------------------------------------------------
D--------------------------------------------------------
A--------------------------------------------------------
E--------------------------------------------------------

Bm
Suenan los vientos en el gran cañón,
G A
ven desde lejos llegar los navíos,
Bm
Donde algún día mandaban los ríos,
G D
hoy ha vencido el terror al amor
Bm
En sus escuelas voladas a tiros,
G A
sólo se escuchan los gritos de críos
Bm
Que viva el navajo, arquero valiente
G D
Enseña a la muerte tus dientes

G A Bm
Y en esta tierra, donde levantamos piedras,
G
Del océano a la sierra suena el rock,
F# Bm
suena la cumbia, y suena el guaguancó, y suena el guaguancó
G A E G
Y en esa selva, ven indios y peligros por el mundo entero,
F#
siguen siendo vaqueros


Bm G A Bm G D
Bm G A Bm G-A-F#


Bm
El viaje es largo y mientras en sus rúas
G A
cruza un espalda mojada sin frenos
Bm
La libertad encerrada en estatuas
G D
televisando el milagro del hielo
Bm
Y otra estrella que se apaga
G A Bm
Han secuestrado el futuro con noches de balas perdidas
G
Desde la quinta avenida a la fama,
D
sembrando el mundo de llamas


G A Bm
Y en esta tierra, donde levantamos piedras,
G
Del océano a la sierra suena el rock,
F# Bm
suena la cumbia, y suena el guaguancó, y suena el guaguancó
G A E G
Y en esa selva, ven indios y peligros por el mundo entero,
F#
siguen siendo vaqueros

G-D-A F#m A Bm
De caballo ganador, hijo aquí tienes tu arma
G-D-A F#m A Bm
Ve y defiende tu nación de las estrellas y barras
G-D-A F#m A Bm
De caballo ganador, hijo aquí tienes tu arma
G-D-A F#m A Bm
Ve y defiende tu nación de las estrellas y barras

G-D-A F#m Bm
G-D-A F#m Bm

Bm G D
Aquí llegó La Raíz con su mensaje directo al tuétano
F# G D
y te pone a danzar con su ritmo decolonial

Bm
Hombre blanco del “pienso luego existo”,
G D
le impusiste al mundo tu laberinto
F# Bm
Tatuado en la piel del rostro pálido,
D F#
solipsismo, saqueo y genocidio.
Bm
El indio que se siente en un mundo de locos,
G D
sabe danzar en la hoguera como pocos
F# Bm
No queda nada nada para celebrar
D F#
No hay nada para celebrar
Bm
El indio que se siente en un mundo de locos,
G D
sabe danzar en la hoguera como pocos
F# Bm
No queda nada nada para celebrar
G F#
No hay nada para celebrar


Ganador... Tu nación...
Ganador, hijo aquí tienes tu arma
F#m A Bm
Tu nación de las estrellas y barras

G-D-A F#m A Bm
De caballo ganador, hijo aquí tienes tu arma
G-D-A F#m A Bm
Ve y defiende tu nación de las estrellas y barras
G-D-A F#m A Bm
De caballo ganador, hijo aquí tienes tu arma
G-D-A F#m A Bm
Ve y defiende tu nación de las estrellas y barras
...