Rueda La Corona

La Raíz

Genero: Rap

Tablatura

E|---------------------------
B|---------------------------
G|--------------------------- (dos versos)
D|-------6h7-----10/11--7/0--
A|--7h9-------9--------------
E|---------------------------


En el tablero un peón y una torre, un alfil, un caballo que corre
Última fila hay un rey que se ríe y vigila, es en su honor la partida
Blancos y negros, son rojos y azules, siglos de llantos, nieblas, ataúdes
Caras al sol escondidos en nubes... que se acabe ya, coño!


F#m A
Hoy es festivo, hay que hacer jaque a la reina que aún está viva y risueña
F#m A
Hay que romper el tablero. En el exilio los reyes no ganan el juego.
F#m A
Hoy soy de todas y todos, hoy es mañana en las mesas de aquellos abuelos
F#m A
Hoy puede ser, debe ser la partida; elige piezas que dejen su vida




E|----------------------------------------------------------------------------
B|-----6-----6h7--6v-----9--9--9--9p7--6-----6-----6h7--6v-----6--6--6--6-----
G|--7-----7-----------7-------------------7-----7-----------7--------------9p7
D|----------------------------------------------------------------------------
A|----------------------------------------------------------------------------
E|----------------------------------------------------------------------------


E|------------------------------------------------------
B|-----6-----6h7--6v-----9--9--9--9p7--6-----6-----6h7--
G|--7-----7-----------7-------------------7-----7-------
D|------------------------------------------------------
A|------------------------------------------------------
E|------------------------------------------------------

F#m D A C#m7
Hoy también juegan las damas, hay que incendiar el castillo y las llamas
F#m
que traigan mañanas
D A C#m7
Que traigan, que traigan mañanas y nuevas proclamas
F#m D A C#m7 F#m
Hay que romper de una vez su ajedrez, yo daría mi vida por retar al rey
D A C#5 A5 G#5
Cuerpo a cuerpo en la tierra abatida


E|---------------------------
B|---------------------------
G|--------------------------- (dos versos)
D|-------6h7-----10/11--7/0--
A|--7h9-------9--------------
E|---------------------------


Mira el rey siempre es rey todos siguen siendo lo que son menos los peones.


F#m A
Desfilando va el pueblo, como un vendaval que avanza firme y elegante
F#m A
Y abriendo paso en el frente, como un general, va un elefante, va un elefan
F#m A
Que escupe sangre al chupón y a su herencia, porque su reloj ya no tiene
paciencia,
F#m A
Porque hay un peón que no teme a la suerte, que ya conoce la vida
llenita de muerte

E|---------------------------------------------------------------------------
B|-----6-----6h7--6v-----9--9--9--9p7--6-----6-----6h7--6v-----6--6--6--6----
G|--7-----7-----------7-------------------7-----7-----------7--------------9p7
D|----------------------------------------------------------------------------
A|----------------------------------------------------------------------------
E|----------------------------------------------------------------------------
E|------------------------------------------------------
B|-----6-----6h7--6v-----9--9--9--9p7--6-----6-----6h7--
G|--7-----7-----------7-------------------7-----7-------
D|------------------------------------------------------
A|------------------------------------------------------
E|------------------------------------------------------


F#m D A C#m7
Hoy también juegan las damas, hay que incendiar el castillo y las llamas que
F#m
traigan mañanas
D A C#m7
Que traigan, que traigan mañanas y nuevas proclamas
F#m D A C#m7 F#m
Hay que romper de una vez su ajedrez, yo daría mi vida por retar al rey
D A C#5 A5 G#5
Cuerpo a cuerpo en la tierra abatida


F#5 D5
Cada pieza que me coma será un pasito menos
A5 C#5
Quiero ver esa corona rodando por el tablero
F#5 D5 C#5 A5 G#5 E|--0p2--4
y a la vida relamiendo sus heridas


F#5 D5
Cada pieza que me coma será un pasito menos
A5 C#5
Quiero ver esa corona rodando por el tablero
F#5 D5 C#5 A5 G#5 E|--0p2--4
y a la vida relamiendo sus heridas


F#5 D5 A5 C#5
F#5 D5 B A G# x2
E|--0p2--4F#5



D5 A5 C#5 A|--3333-2p0
Ha nacido una espada forjada por cada palabra por cada milenio de más
F#5
que estuviste
D5 A|-555-444-222 E|-444
Matando de hambre a tus pueblos, viviendo del chiste
F#5 D5 A5 C#5 A|--3333-2p0 F#5
Hay que elegir para siempre y movemos, ser un peón no se elige
D5 A|-555-444-222 E|-444
Hace tiempo que lo repetimos; Aquí elegimos levantar el vuelo.

F#5 D5 A5 C#5 A|--3333-2p0
F#5 D5 A|-555-444-222---777-555-444
E|------------444-----------555



E|--------------------------------------------------
B|-----6-----6-----6-----6-----6-----6-----6-----6--
G|--7-----7-----7-----7-----7-----7-----7-----7-----
D|--------------------------------------------------
A|--------------------------------------------------
E|--------------------------------------------------
Todos siguen siendo lo que somos menos los peones

E|----------------------------------------------------------------------------
B|----------------------------------------------------------------------------
G|--7--7--7--7--7--7--7/9--7--7--7--7--7/11--11--11--11/9--7--7--7--7--7--7--7
D|----------------------------------------------------------------------------
A|----------------------------------------------------------------------------
E|----------------------------------------------------------------------------
E|--------------------------------------
B|--------------------------------------
G|-7/9/7--6--6--6--6-6/7--7--7--7/6--4--
D|--------------------------------------
A|--------------------------------------
E|--------------------------------------

E|----------------------------------------------------------------------------
B|----------------------------------------------------------------------------
G|--7--7--7--7--7--7--7/9--7--7--7--7--7/11--11--11--11/9--7--7--7--7--7--7--7
D|----------------------------------------------------------------------------
A|----------------------------------------------------------------------------
E|----------------------------------------------------------------------------
E|--------------------------------------
B|--------------------------------------
G|-7/9/7--6--6--6--6-6/7--7--7--7/6--4--
D|--------------------------------------
A|--------------------------------------
E|--------------------------------------


F#5 D5
Cada pieza que me coma será un pasito menos
A5 C#5
Quiero ver esa corona rodando por el tablero
F#5 D5 B A G# E|--0p2--4
y a la vida relamiendo sus heridas


F#5 D5
Cada pieza que me coma será un pasito menos
A5 C#5
Quiero ver esa corona rodando por el tablero
F#5 D5 B A G# E|--0p2--4
y a la vida relamiendo sus heridas


F#5 D5
Cada pieza que me coma será un pasito menos
A5 E5
Quiero ver esa corona rodando por el tablero


F#5 D5 A|-555-444-222---777-555-444
E|------------444-----------555
y a la vida relamiendo sus heridas