Elegiré

La Raíz

Genero: Pop

Tablatura

INTRODUCCIO



------------------------------------
--------3/8-8887--------------------
--/5-55----------8------------------
16/----------------3-5-5-5-5-3-1-0-1


-------------------------------------------
----3/8-88-10------------------------------
5-55----------8---10-12-12-12---10-12-12-12
----------------8--------------------------

------------------------------ -----------------------------
--------3/8-8887-------------- ----3/8-88-10-----------10---
--/5-55----------8------------ 5-55----------8---10-12----10
16/----------------3-5-5-5-5-3 ----------------8------------

-----------------------------
----3/8-88-10-----------10---
5-55----------8---10-12----10
----------------8------------


(Julio) LA SENDA ESTA MALA...

--------------- ---------------
--------------- THEN-] ---------------
5--1--1--3-1--- THEN-] ---------------
-------------1- -3-5-5-5-5-3-1-

--------------- ---------------
--------------- THEN-] ---------------
5----------8--- THEN-] ---------------
---6--6--8----- -3-5-5-3-5-5---


--------------- ---------------
--------------- THEN-] ---------------
5--1--1--3-1--- THEN-] ---------------
-------------1- -3-5-5-5-5-3-1-

------------------------------
------------------------------
5----------8-8-10-10-10-8-7------
---6--6--8------------------8-



(Pablo) ESTRIBILLO

---------------------------------
-----3/8-8887--------------------
5-55----------8------------------
----------------3-5-5-5-5-3-1-0-1

-------------------------------------------
----3/8-88-10------------------------------
5-55----------8---10-12-12-12---10-12-12-12
----------------8--------------------------

--------------------------- -----------------------------
-----3/8-8887-------------- ----3/8-88-10-----------10---
5-55----------8------------ 5-55----------8---10-12----10
----------------3-5-5-5-5-3 ----------------8------------



FINAL ESTRIBILLO

--------
----5/12
5-------
--------


(Panxo) YO LE DIJE AL CAMINO...

-------------- -----------
-------------- THEN-] -----------
-------------- THEN-] -----------
8/1-------13/1 3-5-5-3-5-5


------------- -----------
------------- THEN-] -----------
5------------ THEN-] -----------
---6--6--8--- 3-5-5-3-5-5

-------------------------------
-------------------------------
5------------8-8-10-10-10-8-7--
--6--6--8---------------------8


(Pablo) ESTRIBILLO

---------------------------------
-----3/8-8887--------------------
5-55----------8------------------
----------------3-5-5-5-5-3-1-0-1

-------------------------------------------
----3/8-88-10------------------------------
5-55----------8---10-12-12-12---10-12-12-12
----------------8--------------------------

--------------------------- -----------------------------
-----3/8-8887-------------- ----3/8-88-10-----------10---
5-55----------8------------ 5-55----------8---10-12----10
----------------3-5-5-5-5-3 ----------------8------------



FINAL ESTRIBILLO

--------
----5/12
5-------
--------



(Sen-Ka) OSCUROS ESPIRITUS POR LA NOCHE...

(A - B - A\'- B\'- A\'- B - A\'- B\'- A\'- B)

----------------------
----------------------
A -----------5-5-5-5----
-13/3----3---------4-3


-----------------------
-----------------------
B -------3---3----7-7----
1-3--5---5---5------5-5

-------------
-------------
A\' 3-5-5-5-5----
----------4-3

-----------------
-----------------
B\' -------3---3----3
1-3--5---5----5--

-------------
-------------
A\' 3-5-5-5-5----
----------4-3

-----------------------
-----------------------
B -------3---3----7-7----
1-3--5---5---5------5-5

-------------
-------------
A\' 3-5-5-5-5----
----------4-3

-----------------
-----------------
B\' -------3---3----3
1-3--5---5----5--

-------------
-------------
A\' 3-5-5-5-5----
----------4-3

-----------------------
-----------------------
B -------3---3----7-7----
1-3--5---5---5------5-5



ESTRIBILLO x2

---------------------------------
-----3/8-8887--------------------
5-55----------8------------------
----------------3-5-5-5-5-3-1-0-1

-------------------------------------------
----3/8-88-10------------------------------
5-55----------8---10-12-12-12---10-12-12-12
----------------8--------------------------


[entra Pablo] x2

------------------------------- -------------------------------------------
-----3/8-8887------------------ ----3/8-88-10------------------------------
5-55----------8---------------- 5-55----------8---10-12-12-12---10-12-12-12
----------------3-5-5-5-5-5-5-5 ----------------8--------------------------


[CORO]

------------------------------- --------------------------------------
-----3/8-8887------------------ ----3/8-88-10-----------10----8-------
5-55----------8---------------- 5-55----------8---10-12----10-------5-
----------------3-5-5-5-3-5-5-5 ----------------8---------------------