El Circo De La Pena

La Raíz

Genero: R-b

Tablatura

Intro:

--------5----8-6-5-----------5-----8-6-5-(3-5)-
-----6-------------6------6--------------------
--7--------5-----------7--------5--------------
-----------------------------------------------
-----------------------------------------------
-----------------------------------------------

Dm-C-A#-A x4


Dm C A# A
Entre montañas avanza, la feria ambulante que grita y que canta
Dm C A# A
Alegre de cara al mundo y en bambalinas las lágrimas saltan
Dm C A# A
Entre las sombras del público un muerto que pide a gritos un aire más fresco
Dm C A# A
Le hemos traído un invento, vinimos en una alfombra así que súbete


Dm C A# A
Súbete desde aquí se ve la sangre y los ojos del miedo en las pateras
Dm C A# A
Y el discurso del Papa contra el hambre, y el Edén que amuralla sus fronteras
Dm C A# A F
Súbete, desde aquí se ve un enjambre, de ministros, alcaldes y banderas
F A
Tenemos una alfombra que vuelva y va matándonos de pena.



Estribillo:

Dm C A#
Y el trapecista gritó wooooouwooooh
Dm C A#
“¿Cómo me lanzo al amor?” wooooouwooooh
Dm C A#
Y la pintora gritó wooooouwooooh
Dm C A#
“¿Quién me ha robado el color?”
A# A
Todo mi circo lloró mordido por el dolor



Dm-C-A#-A x2



Dm C A# A
Atrás quedará el guion del hombre que hizo del dinero
Dm C A#
Su papel, su condena y su dios,
A
Y ahora no queda luna llena que transforme a este lobo,
Dm C
Perdido, que habla entre suspiros
A# A
Que perdió de vista a su enemigo
Dm C A# A
Atrás quedará


Dm C A# A
Súbete desde aquí se ve la sangre y los ojos del miedo en las pateras
Dm C A# A
Y el discurso del Papa contra el hambre, y el Edén que amuralla sus fronteras
Dm C A# A F
Súbete, desde aquí se ve un enjambre, de ministros, alcaldes y banderas
F A
Tenemos una alfombra que vuelva y va matándonos de pena.



Estribillo:

Dm C A#
Y el trapecista gritó wooooouwooooh
Dm C A#
“¿Cómo me lanzo al amor?” wooooouwooooh
Dm C A#
Y la pintora gritó wooooouwooooh
Dm C A#
“¿Quién me ha robado el color?”
A# A
Todo mi circo lloró mordido por el dolor



Interludio:

--------5----8-6-5-----------5-----8-6-5-(3-5)--10----10--8--6--------
-----6-------------6------6------------------------10-----------10--6-
--7--------5-----------7--------5-------------------------------------
----------------------------------------------------------------------
----------------------------------------------------------------------
----------------------------------------------------------------------


--10----10--8--6--------------
-----10-----------10--6----9--
------------------------------
------------------------------
------------------------------
------------------------------

Dm C A# A
En este circo hay niños estrellas niños estrellas

Dm C A# A
muertos a tiros y ahogados en favelas, ahogados en favelas…