Donde Duerme El Chamán

La Raíz

Genero: Pop

Tablatura

ESTA CANCIÓN LA SACAMOS DE OÍDO ENTRE NEMO Y YO(CARRETERO)
DUDAS Y COMENTARIOS ENVIAR CORREO A inhalandoacidozbanda@gmail.com

INTRO CON PALM MUTE
e |-----------------------------------------------------------------|
G |-----------------------------------------------------------------|
B |-----------------------------------------------------------------|
D |--0-0-2/3---0-2/3---0-3-0------0-0-2/3---0-2/3---0---------------|
A |----------1-------0--------------------1-------0---1-0-----------|
E |-----------------------------------------------------------------|

e |-----------------------------------------------------------------|
G |-----------------------------------------------------------------|
B |-----------------------------------------------------------------|
D |--0-0-2/3---0-2/3---0-3-0------0-0-2/3---0-2/3----3-3-3--2-------|
A |----------1-------0--------------------1----------1-1-1--0-------|
E |-----------------------------------------------------------------|


ENTRA EN QUINTAS EN: D5 / A#5 / A5 / D5 A#5 / F5 / A#5 / A X4 VECES


PUNTEO
e |-------------------------------------------------------------------|
G |-------------------------------------------------------------------|
B |-------------------------------------------------------------------|
D |-------------------------------------------------------------------|
A |----5-3-5--5-3-5--5-3-5--5-3-5-------------------------------------|
E |----------------------------------5-4-5--5-4-5--5-4-5--5-4-5-------|


ENTRA CON PUNTEO:

América latina grita, grita
como testigos del futuro.
Salgan de las minas,les daremos duro
a esos presidentes del norte pendientes
esclavizando en beneficio de occidente.

Sois el ejemplo del sudor y la sangre
Y de los sueños pequeños y alcanzables.
Desde tierra de fuego a Ciudad Juárez
un águila vuela y vigila campos y ciudades.


AQUÍ ENTRA ACORDE:

Dales, dales, que gritan tus ideales
Lupita de los muertos, no ayude a los criminales
castiga a la Europa que ha robado tu semilla.
Y al norte que financia el hambre en tu família.

Alerta, alerta, alerta que camina
la espada de Bolívar por América latina.
La história es tuya, y tu eres la esperanza
de nuestra lucha, el escudo y la lanza.

CONTINUA CON ESTO:

e |-----------------------------------------------------------------|
G |-----------------------------------------------------------------|
B |-----------------------------------------------------------------|
D |--0-0-2/3---0-2/3---0-3-0------0-0-2/3---0-2/3----3-3-3--2-------|
A |----------1-------0--------------------1----------1-1-1--0-------|
E |-----------------------------------------------------------------|

D5 A#5 A5 D5
En la montaña que duerme el Chamán
A#5 F5 A#5 A
se escucha un grito latinoamericano.
D5 A#5 A5 D5
Dicen que se oye a una bestia llorar
A#5 F5 A#5 A
se escucha un grito latinoamericano.

D5 A#5 A5 D5
En la montaña que duerme el Chamán
A#5 F5 A#5 A
se escucha un grito latinoamericano.
D5 A#5 A5 D5
Dicen que se oye a una bestia llorar
A#5 F5 A#5 A
se escucha un grito.


ESTO CONTINUA SOLO CON BAJEO:

Latinoamérica comienza a caminar al fin
independiente del imperio occidental y sin
ser esclavos del Banco Mundial y FMI
siguiendo el legado de Bolívar y de Martí.

Y es que un pueblo digno es un pueblo libre
y si a este se oprime, se oirá el ruido de sables.
Que un pueblo sin miedo es lo más temible
porque los principios no son negociables.


ENTRAN ACORDES Y PUNTEO EN LA OTRA GUITARRA:

Y atacarán con hambre y atacarán con sed
quien aprende de su historia no repite, ves
que ya lograron romper sus cadenas
recobraron sus tierras y ya desterraron las penas.

Hacen falta más Zapatas, más Camilos
más Guevaras, más obreros, más campesinos.
Con la cabeza y el puño bien alto, queremos
¡Viva latinoamérica, viviremos y venceremos!


CONTINUA CON ESTO:

e |-----------------------------------------------------------------|
G |-----------------------------------------------------------------|
B |-----------------------------------------------------------------|
D |--0-0-2/3---0-2/3---0-3-0------0-0-2/3---0-2/3----3-3-3--2-------|
A |----------1-------0--------------------1----------1-1-1--0-------|
E |-----------------------------------------------------------------|

D5 A#5 A5 D5
En la montaña que duerme el Chamán
A#5 F5 A#5 A
se escucha un grito latinoamericano.
D5 A#5 A5 D5
Dicen que se oye a una bestia llorar
A#5 F5 A#5 A
se escucha un grito latinoamericano.
D5 A#5 A5 D5
En la montaña que duerme el Chamán
A#5 F5 A#5 A
se escucha un grito latinoamericano.
D5 A#5 A5 D5
Dicen que se oye a una bestia llorar
A#5 F5 A#5 A
se escucha un grito.

EN EL FINAL:
ENTRA EN QUINTAS EN: D5 / A#5 / A5 / D5 A#5 / F5 / A#5 / A X4 VECES
se escucha un grito latinoamericano.x4