Dientes Del León

La Raíz

Genero: R-b

Tablatura

Intro:
-------------------------------------------------------2-2-2-----------------
--------2-2-2-----------------------------2------2-5--------5-5-5---2-2-1---
-2-4----------4-2-1--2-2-2-1-1-------2-4-----4-------4--------------------2-
---------------------------------4-------------------------------------------
-----------------------------------------------------------------------------
-----------------------------------------------------------------------------


---------------------------------------5-7-4--------2-4-5--2-4-----2----------
-2-2-2----------------------------2--5-----------5---------------5----3-5-3-2-
---------4-2-1--2-2-2-1-1----2-4----------------------------------------------
---------------------------4--------------------------------------------------
------------------------------------------------------------------------------
------------------------------------------------------------------------------

A C#m F#m
Cuando tu mente calla,
también calla tus agallas,
nunca te vi canalla,
compartir esta batalla
dar patadas a la valla
hará que caiga esa muralla
tengo algo de animal
algo que ruge y estalla, uooh

Soy el nacido en un país desconocido
el que vive abajo, el que busca trabajo
soy las montañas de este puto vertedero
la segunda mano, apuntando al cielo.
Quizá sea tarde, quizá sea pronto,
que pare ya este baile de locos
mi sabana guarda las huellas de un pueblo que canta.
Estribillo
A C#m F#m E
Soy los dientes del león, que duerme con un ojo abierto
Africano bailador, como el viento del desierto,
Soy las pieles del tambor, las chilabas de esos cuerpos,
Africano bailador, africano sentimiento
-------------------------------------------------------2-2-2----------------
--------2-2-2-----------------------------2------2-5--------5-5-5---2-2-1---
-2-4----------4-2-1--2-2-2-1-1-------2-4-----4-------4--------------------2-
---------------------------------4------------------------------------------
----------------------------------------------------------------------------
----------------------------------------------------------------------------


-------------------------------------------5-7-4--2-4-5--2-4---2------------
-2-2-5-------------------------------2--5--------5----------------5--3-2----
--------2-1---------2-2-2-1-1---2-4-----------------------------------------
------------------------------4---------------------------------------------
----------------------------------------------------------------------------
----------------------------------------------------------------------------
El resto de la canción es igual, excepto en el final que suenan los coros,
hay toca La, Re y Mi si veis algún fallo enviádmelo y lo corrijo,
muchas gracias!! :D