Soñar Despierto

La Pestilencia

Album: Balística
Genero: Pop
La pestilencia: Soñar Despierto
por Julián Gámez

|----------------------------|
|--------8-7---------8/10b---|
|6-8-9-6-----6-8-9-6--------*|
|---------------------------*|
|----------------------------|
|----------------------------|

Coro:

|-x---x---x--x--x--x---|
|-x---x---x--x--x--x---|
|12--12--11-11-11-11--*|
| x---x---9--9--9--9--*|
|10--10---9--9--9--9---|
|-x---x---x--x--x--x---|

y ya no quiero soñar despierto
A5 x 2 y Ab5 x 4
----------------------------------------------------------
|----------------------------|
|--------8-7---------8/10b---|
|6-8-9-6-----6-8-9-6--------*|
|---------------------------*|
|----------------------------|
|----------------------------|

Coro:

|-x---x---x--x--x--x---|
|-x---x---x--x--x--x---|
|12--12--11-11-11-11--*|
| x---x---9--9--9--9--*|
|10--10---9--9--9--9---|
|-x---x---x--x--x--x---|

y ya no quiero soñar despierto
A5 x 2 y Ab5 x 4
----------------------------------------------------------
Solo:

|------------------------|-------------------------|
|------------------------|---18----18----18----20--|
|12-14-15-17-17-19-19-21-|21----21----21----21----*|
|------------------------|------------------------*|
|------------------------|-------------------------|
|------------------------|-------------------------|


y ya no quiero soñar despierto
A5 x 2 y Ab5 x 4


|----------------------------|
|--------8-7---------8/10b---|
|6-8-9-6-----6-8-9-6--------*|
|---------------------------*|
|----------------------------|
|----------------------------|

Este mundo perfecto
|------------------------------------------|
|------------------------------------------|
|8-6-8-9-8-6-8-6-8-9-8-6-8-6-8-9-8-6-8-9-5-|
|------------------------------------------|
|------------------------------------------|
|------------------------------------------|