Soldado Mutilado

La Pestilencia

Genero: Pop
- ESTA ES LA VERCION EN VIVO (EL AMARILLISTA)PERO SON LOS MISMOS ACORDES DE
LA OTRA VERCIO SOLO QUE SE PUEDEN ESCUCHAR MEJOR LOS Y LA LETRA CAMBIA.
- LA CANCION ES FACIL PERO TIENE MUCHOS CAMBIOS EN LOS CIRCULOS DE ACORDES.
- DUDAS, COMENTARIOS, CORRECCIONES O CANCIONES DE CHITE AL CORREO
ROCKANDRES182@HOTMAIL.COM
---------------------------------------------------------------------------

INTRO:
E|-XX--------|
B|-XX--------|
G|-XX--------|
D|-XX-6-4-6--|
A|-XX-6-4-6--|
E|-XX-4-2-4--|

B5 F#5 F5
Con las medallas de tu pais soldado mutilado
B5 F#5 F5
Has sido condecorado
B5 F#5 F5
Sin un brazo estas deformado
B5 F#5 F5
Bendicion te da la nacion

E|-------------------------------------------|
B|-------------------------------------------|
G|-6-6------------------6-6------------------| X2
D|-6-6------------------6-6------------------|
A|-4-4-00-2-00-4-00-7-6-4-4-00-2-00-4-00-2-0-|
E|-------------------------------------------|

B5 F#5 F5
Se sienten orgullosos de ti
B5 F#5 F5
Que luchas por tu pais, estupido servir
B5 F#5 F5
Amor te quieren infundir
B5 F#5 F5
Amor por un fusil listos para morir

E|-------------------------------------------|
B|-------------------------------------------|
G|-6-6------------------6-6------------------| X2
D|-6-6------------------6-6------------------|
A|-4-4-00-2-00-4-00-7-6-4-4-00-2-00-4-00-2-0-|
E|-------------------------------------------|

G#5-D#5 G#5-C#5
En nuestro pais hay el 89% de oportunidades para morir
G#5-D#5 * G#5-D#5
Aqui hay 1000 decretos que defienden los derechos de cada uno de ustedes
G#5-C#5 G#5-D#5 G#5-C#5
En donde se violan mas estos derechos???

G#5 F#5 D#5 G#5 F#5 D#5 B5
Retroceder es vivir, enfrentarse es morir
G#5 F#5 D#5 G#5 F#5 D#5 B5
Retroceder es vivir, enfrentarse es morir

G#5-D#5 G#5-C#5
Y como si fuera poco
G#5-D#5 G#5-C#5 G#5-D#5
hay violaciones torturas, secuerstros,
G#5-C#5 G#5-D#5
muertes, desaparecidos, dolor
G#5-C#5 G#5
y aqui siemrpre nos quedamos callados

G#5 F#5 D#5 G#5 F#5 D#5 B5
Retroceder es vivir, enfrentarse es morir
G#5 F#5 D#5 G#5 F#5 D#5 B5
Retroceder es vivir, enfrentarse es morir

E|-------------------------------------|
B|-------------------------------------|
G|-------------------66666666-44444444-|X4
D|-66666666-44444444-66666666-44444444-|
A|-66666666-44444444-44444444-22222222-|
E|-44444444-22222222-------------------|

E|------------------------|
B|------------------------|
G|------66-44-------66-44-|
D|-6-44-66-44-66-44-66-44-|
A|-6-44-44-22-66-44-44-22-|
E|-4-22-------44-22-------|

G#5 F#5 C#5 B5
Por las medallas de tu pais, soldado mutilado
G#5 F#5 C#5 B5
Por las medallas de tu pais, soldado mutilado
G#5 F#5 C#5 B5
Por las medallas de tu pais, soldado mutilado
G#5 F#5 C#5 B5
Por las medallas de tu pais, soldado mutilado...

FINAL:
E|----------------------------------|
B|----------------------------------|
G|---------6-664-44--6-XX6-XX6-XX---|
D|-6-664-446-664-44--6-XX6-XX6-XX-6-|
A|-6-664-444-442-22--4-XX4-XX4-XX-6-|
E|-4-442-22-----------------------4-|

ACORDES:
E|----X----X----X----X----X----X----|
B|----X----X----X----X----X----X----|
G|----4----X----X----3----8----6----|
D|----4----6----4----3----8----6----|
A|----2----6----4----3----6----4----|
E|----X----4----2----1----X----X----|
B5 G#5 F#5 F5 D#5 C#5