Sector De Limpieza

La Pestilencia

La peste: Sector de Limpieza
Por: Julián Gámez


Intro del Bajo
|------------|
|------------|
|------2-1-3-|
|-3-4-3------|
pm..........

|---4--------|
|------------|
|-----4-3-5--|
|-5---4-3-5--|
|-5---2-1-3--|
|-3----------|
G5 B5 Bb5 C5

G5 x 4, D5 x 4, A#5 x 4, D5 x 4

|---4----------|
|--------------|
|-------4-3-5--|
|-5---5-4-3-5--|
|-5---5-2-1-3--|
|-3---3--------|
G5 B5 Bb5 C5

|---5b--6b---5b---6b-|
|--------------------|
|--------------------|
|--------------------|
|--------------------|
|-3---3----3----3----|

Solo:

|-4-4-4-4-4-4-4-4-4-4-4-4-4-4-4-4/9-9-9-9-9-9-9-9/0-|
|---------------------------------------------------|
|---------------------------------------------------|
|---------------------------------------------------|
|---------------------------------------------------|
|---------------------------------------------------|
d u d u d u d u d u d u d u d u d u d u d u d u

|-1h2h3h4-x 14-5h6h7h8 x 14/12v-12/17v----|
|-----------------------------------------|
|-----------------------------------------|
|-----------------------------------------|
|-----------------------------------------|
|-----------------------------------------|
|--4--| |--4--|

G5 x 4, D5 x 4, A#5 x 4, D5 x 4

|---4----------|
|--------------|
|-------4-3-5--|
|-5---5-4-3-5--|
|-5---5-2-1-3--|
|-3---3--------|
G5 B5 Bb5 C5