Olé

La Pestilencia

A Peste: Olé
Por Julián Gámez

|------------------------------0--------------0------------|
|-2-2-2-2-2-2-3-3-3-3-5-3-2---2--2-2---2-2---2--2-2-2------|
|-2-2-2-2-2-2-3-3-3-3-5-3-2-2--------2-----2---------2-2---|
|-2-2-2-2-2-2-3-3-3-3-5-3-2------------------------------0-|
|----------------------------------------------------------|
|----------------------------------------------------------|
A A# C A# A

F5 x12 + F#5 x 1+ G5 x1
F#5 x 12 + G#5 x 1 + G5 x 1

La mismas notas pero Lento.

F5 x12 + F#5 x 1+ G5 x1
F#5 x 12 + G#5 x 1 + G5 x 1

Solo:
|------------------------|
|-2h3-2--------2h3-2---2-|
|------3-2-2-3-------3---|
|------------------------|
|------------------------|
|------------------------|