Nada Me Obliga

La Pestilencia

Genero: Pop
Así considero que se toca toda la canción:

x10 x10 x10 x5 x5
E|-----|-----|-----|----|----
B|-----|-----|-----|----|----
G|-----|-----|-----|----|----
D|-5---|--8--|-3---|--1-|-0--
A|-5---|--8--|-3---|--1-|-0--
E|-3---|--6--|-1---|--0-|-0--
G5 A#5 F5 D#5 D5


Teclado:
E|--6-5-------6-5------6-5------5-6-5-----5-6-5---
B|------6---------6--------6-----------6----------
G|------------------------------------------------
D|------------------------------------------------
A|------------------------------------------------
E|------------------------------------------------

(Bajo)
(Teclado)

G5 A#5
Quisiera poderme ir solo, solo
F5 D#5 D5
sin depender de alguien y hacer mi vida solo


G5 A#5
Salir al mundo y ver qué encuentro
F5 D#5 D5
puede ser amor, puede ser odio


G5 A#5
No quiero que me ate, nada, nadie
F5 D#5 D5
odio los pasaportes, fronteras y gobiernos


CORO A (x2):
G5 A#5
Y B E vida corre, y si mi vida corre,
F5 D#5 D5
y si mi vida corre el riesgo qué importa es mi solución

CORO B:
G5 A#5
Y B E vida corre, y si mi vida corre,
F5 D#5 D5
y si mi vida corre el riesgo ¿qué importa?

(Teclado)

G5 A#5
Quisiera poderme ir solo, solo
F5 D#5 D5
andar a la deriva y no resolver, sólo andar libre


G5 A#5
Andar libre es lo que quiero,
F5 D#5 D5
como si la realidad no la hubiese visto


G5 A#5
Y así no sentir el dolor que ahora siento
F5 D#5 D5
ese fuerte dolor, del real espejo

CORO A (x3)

CORO B

(Solo)

CORO A (x2)

CORO B

---------------------
Musa era bonita
y cuando sacudía su cabellera
nos regalaba hermosas
y bonitas melodías.

Un día sintió rasquiña,
desesperada, se inclinó hacia la Tierra,
toda esa mugre cayó en los vulnerables (jóvenes)
y la guardaron en sus oídos.

Por la atmósfera satanizada de maldad,
esta esencia musical le cayó a la juventud.

Caspa era de los humanos,
excremento lo que producían,
¿cómo bautizar la mugre de Musa?
Una tarde abreviaron este nombre: "Reggaetón".