Metralla

La Pestilencia

La peste: Metralla
Por: Julián Gámez

|-------| |-------|
|-------| |-------|
|-------| |-------|x 8
|-5-5-5-| |-5-7-8-|
|-5-5-5-| |-5-7-8-|
|-3-3-3-| |-3-5-6-|

De ambos lados
|---| |----------------------------------|
|---| |----------------------------------|
|---|x 6|----------------------------------|
|-8-| |----------------------------------|
|-8-| |----------------------------------|
|-6-| |-/3-3-3-3-4-3-3-3-4-3-3-3-4-3-3-3-|


Go!
|-------|
|-------|
|-------| x 8
|-8-5-7-|
|-8-5-7-|
|-6-3-5-|


|---| |----------------------------------|
|---| |----------------------------------|
|---|x 6|----------------------------------|
|-8-| |----------------------------------|
|-8-| |----------------------------------|
|-6-| |-/3-3-3-3-4-3-3-3-4-3-3-3-4-3-3-3-|

solo:
|---------| |---------|
|---------| |---------|
|---6---6-|x 4 |---3---3-|x 2
|-5---4---| |-2---1---|
|---------| |---------|
|---------| |---------|

|--------(5b)-|
|-------------|
|1h/>21-------|
|-------------|
|-------------|
|-------------|
|--4--|

|---| |----------------------------------|
|---| |----------------------------------|
|---|x 6|----------------------------------|
|-8-| |----------------------------------|
|-8-| |----------------------------------|
|-6-| |-/3-3-3-3-4-3-3-3-4-3-3-3-4-3-3-3-|

|-------|
|-------|
|-------| x 8
|-8-5-7-|
|-8-5-7-|
|-6-3-5-|