Hasta Cuando, Hasta Siempre

La Pestilencia

Album: Balística
Genero: Pop
La Peste: Hasta cuando- Hasta siempre
Por Julián Gámez

|-----------------------------|
|--4---3---8-8---7-7----------|
|5---5---5-----5-------------*|
|----------------------------*|
|-----------------------------|
|-----------------------------|

|-----3-3---2-2-|
|---1-----1-----|
|-5------------*|
|--------------*|
|---------------|
|---------------|

Coro:
G5 x 5, Gb5 x 5
G5 x 5, Gb5 x 5
G5 x 5, Gb5 x 5
G5 x 3. A5 x 3


x2
:___________________________________________________________________


D5 Vibración, A#5 X 3, A5 X3

sOLO
|------------------------------------------------------|
|-1h4-1h4-1h4-1h4-5h8-5h8-5h8-5h8-11-8-11-8-11-8-11b---|
|----------------------------------------------------*-|
|----------------------------------------------------*-|
|------------------------------------------------------|
|------------------------------------------------------|

|-----------------------------|
|--4---3---8-8---7-7----------|
|5---5---5-----5-------------*|
|----------------------------*|
|-----------------------------|
|-----------------------------|

|-----3-3---2-2-|
|---1-----1-----|
|-5------------*|
|--------------*|
|---------------|
|---------------|

D5 Vibración, A#5 X 3, A5 X3