Fango

La Pestilencia

Genero: Pop
Bateria intro
Riff 1 x4
|----------------------------------------|
|----------------------------------------|
|----------------------------------------|
|--7b—-7b--2-2-2-2-2---9b--9b--4-4-4-4-4-|
|--5b—-5b--0-0-0-0-0---7b--7b--2-2-2-2-2-|
|----------------------------------------|

Riff 2 x4
|-----------------------|
|-----------------------|
|-----------------------|
|--4--4-4-4-4-4-4-4-----|
|--2--2-2-2-2-2-2-2/5p0-|
|-----------------------|

Riff 1 x1

Riff 3 x1
|----------------------------------------|
|----------------------------------------|
|----------------------------------------|
|--7---7---2-2-2-2-2---9b—-9b--4-4-4-4-4-|
|--5h7p5---0-0-0-0-0---7b—-7b--2-2-2-2-2-|
|----------------------------------------|

Riff1 x2
Riff2 x4

Solo: \\ Esto o // significa rasga con la plumilla:
|-----------------------------------------------------|
|-----------------------------------------------------|
|-----------22/2p0h2p0h2p0h2p0h4p2p0h4p2p0h2/14b16r14-|
|-22\\x//22-22/x--------------------------------------|
|-22\\x//22-------------------------------------------|
|-----------------------------------------------------|

Riff1 x4
Riff2 x4
y fin de la cancion