El País Del Sagrado Corazón

La Pestilencia

Genero: Pop
LA PESTILENCIA: EL PAIS DEL SAGRADO CORAZÓN
POR: JULIÁN GÁMEZ MARÍN

INTRO:

|----3-2-|
|--------|
|--------|X 4
|--------|
|--------|
|-3-3----|

|-------| |---| |---|
|-------| |---| |---|
|-------|x8|-4-|x8|-5-|x8
|-5-5h6-| |-4-| |-5-|
|-5-5h6-| |-2-| |-3-|
|-3-3h4-| |---| |---|

|-------| |---| |---|
|-------| |---| |---|
|-------|x8|-4-|x8|-5-|x8
|-5-5h6-| |-4-| |-5-|
|-5-5h6-| |-2-| |-3-|
|-3-3h4-| |---| |---|

|----3-2-----3-2-1h2p1h2-|
|------------------------|
|------------------------|X 8
|------------------------|
|------------------------|
|-3-3----3-3-------------|

|-------|
|-------|
|-------|x8
|-5-5h6-|
|-5-5h6-|
|-3-3h4-|

|----3-2-----3-2-1h2p1h2-|
|------------------------|
|------------------------|X 8
|------------------------|
|------------------------|
|-3-3----3-3-------------|

|-------| |---| |---|
|-------| |---| |---|
|-------|x8|-4-|x8|-5-|x8
|-5-5h6-| |-4-| |-5-|
|-5-5h6-| |-2-| |-3-|
|-3-3h4-| |---| |---|

|-------| |---| |---|
|-------| |---| |---|
|-------|x8|-4-|x8|-5-|x8
|-5-5h6-| |-4-| |-5-|
|-5-5h6-| |-2-| |-3-|
|-3-3h4-| |---| |---|

|----3-2-----3-2-1h2p1h2-|
|------------------------|
|------------------------|X 8
|------------------------|
|------------------------|
|-3-3----3-3-------------|

|-------|
|-------|
|-------|x8
|-5-5h6-|
|-5-5h6-|
|-3-3h4-|