Desplazados

La Pestilencia

La pestilencia: Desplazados
Por. Julián Andrés Gámez Marín

Intro:
|-------------------------------------|
|-------------------------------------|
|-4-4-4-5-5-5-4-4-4-------------------|x4
|-4-4-4-5-5-5-4-4-4-5-5-4-4-4-2-2-2-2-|
|-2-2-2-3-3-3-2-2-2-5-5-4-4-4-2-2-2-2-|
|-------------------3-3-2-2-2-0-0-0-0-|

|----------------------| |-------|
|----------------------| |-------|
|----------------------|x4|-------|
|0-0-0-2---2-------2-0-| |-------|
|0-0-0-2---2-------2-0-| |-2-1-0-|
|0-0-0-0---0-3-6-5-0-0-| |-------|

Intro:
|-------------------------------------|
|-------------------------------------|
|-4-4-4-5-5-5-4-4-4-------------------|x3
|-4-4-4-5-5-5-4-4-4-5-5-4-4-4-2-2-2-2-|
|-2-2-2-3-3-3-2-2-2-5-5-4-4-4-2-2-2-2-|
|-------------------3-3-2-2-2-0-0-0-0-|

|----------------------| |-------|
|----------------------| |-------|
|----------------------|x4|-------|
|0-0-0-2---2-------2-0-| |-------|
|0-0-0-2---2-------2-0-| |-2-1-0-|
|0-0-0-0---0-3-6-5-0-0-| |-------|

|-----------------|
|-----------------|
|-5-5-4-4-7-7-9-9-|x 5
|-5-5-4-4-7-7-9-9-|
|-3-3-2-2-5-5-7-7-|
|-----------------|

Intro:
|-------------------------------------|
|-------------------------------------|
|-4-4-4-5-5-5-4-4-4-------------------|x 4
|-4-4-4-5-5-5-4-4-4-5-5-4-4-4-2-2-2-2-|
|-2-2-2-3-3-3-2-2-2-5-5-4-4-4-2-2-2-2-|
|-------------------3-3-2-2-2-0-0-0-0-|

|--------|
|--------|
|--------|
|0-0-0-2-|
|0-0-0-2-|
|0-0-0-0-|