Cordero Arrepentido

La Pestilencia

Album: Balística
Genero: Pop
La peste: Cordero arrepentido
Por: Julián Gámez

|---------------------------------|
|---------------------------------|
|-5-5-5-5-9-9-9-9-7-7-7-7-9-9-9-9-|
|-5-5-5-5-9-9-9-9-7-7-7-7-9-9-9-9-|
|-3-3-3-3-7-7-7-7-5-5-5-5-7-7-7-7-|
|---------------------------------|

|----------|
|----------|
|-7v-9v-5v-|
|-7v-9v-5v-|
|-5v-7v-3v-|
|----------|


|---------------------------------|
|---------------------------------|
|-5-5-5-5-9-9-9-9-7-7-7-7-9-9-9-9-|
|-5-5-5-5-9-9-9-9-7-7-7-7-9-9-9-9-|
|-3-3-3-3-7-7-7-7-5-5-5-5-7-7-7-7-|
|---------------------------------|

|----------|
|----------|
|-7v-9v-5v-|
|-7v-9v-5v-|
|-5v-7v-3v-|
|----------|

|-------------------7v-------------------5v-|
|-------------------------------------------|
|-------------------------------------------|
|-------------------------------------------|
|-5-3-5-5-3-5-5-3-5----5-3-5-5-3-5-5-3-5----|
|-------------------------------------------|

|---------------------------------|
|---------------------------------|
|-5-5-5-5-9-9-9-9-7-7-7-7-9-9-9-9-|
|-5-5-5-5-9-9-9-9-7-7-7-7-9-9-9-9-|
|-3-3-3-3-7-7-7-7-5-5-5-5-7-7-7-7-|
|---------------------------------|

|-------------------7v-------------------5v-|
|-------------------------------------------|
|-------------------------------------------|
|-------------------------------------------|
|-5-3-5-5-3-5-5-3-5----5-3-5-5-3-5-5-3-5----|
|-------------------------------------------|

La biblia dice:

|---------------------------------|
|---------------------------------|
|-5vvvvv--9vvvv-7vvvv-9vvvv-7vvvv-|
|-5vvvvv--9vvvv-7vvvv-9vvvv-7vvvv-|
|-3vvvvv--7vvvv-5vvvv-7vvvv-5vvvv-|
|---------------------------------|

Solo:
|-------------------------|
|--------------6h7h8h9>21-|
|-7h8h9h10-x 5------------|
|-------------------------|
|-------------------------|
|-------------------------|

|---------------------------------|
|---------------------------------|
|-5-5-5-5-9-9-9-9-7-7-7-7-9-9-9-9-|
|-5-5-5-5-9-9-9-9-7-7-7-7-9-9-9-9-|
|-3-3-3-3-7-7-7-7-5-5-5-5-7-7-7-7-|
|---------------------------------|


Tus principios
Outro
|--------------------|
|--------------------|
|--------------------|
|-7-7--7-7--7-7--7-7-|
|-7-7--7-7--7-7--7-7-|
|-5-5--5-5--5-5--5-5-|