Carne Molida

La Pestilencia

Album: Balística
Genero: Pop
La pestilencia: Carne Molida
Por. Julián Andrés Gámez Marín

Intro:
|------------------------| |-----------------------|
|------------------------| |-----------------------|
|------------------------|x2|-----------------------|x1
|-5-5-5-5-6-6-6-6-<6>----| |-6-6-6-6-5-5-5-5-<5>---|
|-5-5-5-5-6-6-6-6-<6>x8--| |-6-6-6-6-5-5-5-5-<5>x8-|
|-3-3-3-3-4-4-4-4-<4>----| |-4-4-4-4-3-3-3-3-<3>---|

|-------------------|
|-------------------|
|-------------------|
|-5-6-4-5-4-6-6-4-5-|
|-5-6-4-5-4-6-6-4-5-|
|-3-4-2-3-2-4-4-2-3-|

Gue....
|-----|
|-----|
|-----|
|-5-6-|
|-5-6-|
|-3-4-|

|-------------------|
|-------------------|
|-------------------|
|-5-6-4-5-4-6-6-4-5-|
|-5-6-4-5-4-6-6-4-5-|
|-3-4-2-3-2-4-4-2-3-|

Gue....
|-----|
|-----|
|-----|
|-5-6-|
|-5-6-|
|-3-4-|

|-----------------| |----|
|-----------------| |----|
|-----------------|x8|----|
|-7-7-7-7-8-8-8-8-| |-7v-|
|-7-7-7-7-8-8-8-8-| |-7v-|
|-5-5-5-5-6-6-6-6-| |-5v-|

|-------------------|
|-------------------|
|-------------------|
|-5-6-4-5-4-6-6-4-5-|
|-5-6-4-5-4-6-6-4-5-|
|-3-4-2-3-2-4-4-2-3-|

Gue....
|-----|
|-----|
|-----|
|-5-6-|
|-5-6-|
|-3-4-|

Outro:
|-------------|
|-------------|
|-------------|
|-5-5-5-5-6-4-|
|-5-5-5-5-6-4-|
|-3-3-3-3-4-2-|