Ahora Me Cuesta

La Pestilencia

Genero: Pop
Bueno esta es la primera trascripción de esta
fabulosa canción, así que es normal que tenga
errores, pero me parece una base para tocarla bien.
La intro se repite durante toda la canción es como
un riff general, se lo realiza con guitarra y bajo
a la vez, por eso suena tan alto y no igual de grave
que el la canción.
Por supuesto acepto las correcciones necesarias
para este tema de una de las mejores bandas
nacionales. Larga vida al r’n’r.
dudas o sugerencias al mail

Intro

4x
E||------------------------------------|
B||------------------------------------|
G||*----------------------------------*|
D||*----------------------------------*|
A||------------------------------------|
E||---0-0-0-0-0-0-0-0-0-0-0-0-3-3-3-3--|

2x
|------------------------------------||
|------------------------------------||
|*----------------------------------*||
|*----------------------------------*||
|------------------------------------||
|---2-2-2-2-2-2-2-2-2-2-2-2-3-3-3-3--||



E G F#
E||-----------------||
B||-----------------||
G||-----------------||
D||--2----5----4----||
A||--2----5----4----||
E||--0----3----2----||


E G
volverme hoy a despertar
E G
en esta dura soledad
E G
y sonreír y dar buenas repuestas
E G F#
para aparentar
G F#
no querer llorar
G F#
no querer llorar
F#
eso ahora me cuesta

no se si llamar a colgar
no se si me quiero colgar
ya no tengo tu respuesta
y en mi garganta un nudo aprieta mas
no querer llorar

eso ahora me cuesta
eso ahora me cuesta
pero mi antídoto llega
eso ahora me cuesta
pero mi antídoto llega
eso ahora me cuesta
aprender de nuevo a caminar
eso ahora me cuesta

no preguntas no respuestas
este momento es una mierda
seguiré con mi soledad
y aguantarme
no querer llorar
no querer llorar
eso ahora me cuesta

volverme hoy a despertar
en esta dura soledad
y sonreír y dar buenas repuestas
para aparentar
no querer llorar
no querer llorar

eso ahora me cuesta
eso ahora me cuesta
pero mi antídoto llega
eso ahora me cuesta
pero mi antídoto llega
eso ahora me cuesta
aprender de nuevo a caminar
eso ahora me cuesta
por ahora

volverme hoy a despertar
en esta dura soledad
y sonreír y dar buenas repuestas
para aparentar
no querer llorar
no querer llorar
eso ahora me cuesta

no preguntas no respuestas
este momento es una mierda
seguiré con mi soledad
y aguantar
no querer llorar
no querer llorar
por ahora