Cuanto Más

La Otra Fé

Album: La Otra Fe
Genero: Pop

Tablatura (Ver letra)

no esta comletamente como quiero pero ahi la arreglan ustedes
dedicada a carolina...


A* Bm A G
e|--5--------| |--2---------| |------------| |----3-------|
B|--5--------| |--2--3------| |----2-------| |----3-------|
G|--5--6-----| |--2----4----| |----2-------| |------------|
D|--5----7---| |--2----4----| |----2-------| |------------|
A|--5----7---| |--2---------| |------------| |----2-------|
E|--5--------| |--2---------| |------------| |----3-------|


G* D# Cm A#
e|--3--------| |--6---------| |--8----------| |---6--------|
B|--3--------| |--6----8----| |--8----------| |---6--------|
G|--3--4-----| |--6----8----| |--8----------| |---6-7------|
D|--3----5---| |--6----8----| |--8---10-----| |---6---8----|
A|--3----5---| |--6---------| |--8---10-----| |---6---8----|
E|--3--------| |--6---------| |--8----------| |---6--------|



intro

e|-------------5-5-5-----5~~-9s10-9-7---------t10-----------------|
B|---------5-7-------8-7--------------10~~--t10-------------------|
G|---4-6-7--------------------------------7-----------------------|
D|/4--------------------------------------------------------------|
A|----------------------------------------------------------------|
E|----------------------------------------------------------------|


I)

Bm A G
Mi corazón se agita al verte caminar
Bm A G
Me miras y me dices, hola como estás?
Bm A G
Hablamos de lo que hiciste el fin de semana
D A* G A
Con tu voz y tu mirada, hago más que alucinar.


II)

Bm A G
Hay alguien que detiene nuestro platicar
Bm A G
Es el hombre al que tu quieres y amas de verdad
Bm A G
Me dices con un beso, hasta luego amigo
D A* G A
Y me quedo como un niño, sólo y empiezo a llorar.

CORO:

A D A Bm
Cuanto más, tendré que esperar para amar
A G
Para que me puedas besar
D A
Que entre mis brazos puedas soñar
D A Bm
Trataré, que creas que estoy bien y fingiré
A G
Que no me duele verte con el
D A
Aunque por dentro muera otra vez.

INTRO..


Bm A G
Hay veces que no aguanto te quiero contar

Bm A G
Que te amo pero da miedo tu reaccionar

Bm A G
Empiezo a imaginar que si te alejarías
G D
Que seria mi agonía (que seria mi agonía),
D A
me tendré que conformar.


CORO:

A D A Bm
Cuanto más, tendré que esperar para amar
A G
Para que me puedas besar
D A
Que entre mis brazos puedas soñar
D A Bm
Trataré, que creas que estoy bien y fingiré
A G
Que no me duele verte con el
D A
Aunque por dentro muera otra vez.


G* A*
Me pregunto como hacer para olvidar
G* A*
Este amor es tan fuerte, no me deja reaccionar
Bm - A - G - D - Bm - A - G - A*
Nooooooooooo…

CORO:

D# A# Cm
Cuanto más, tendré que esperar para amar
A# G#
Para que me puedas besar
D# A#
Que entre mis brazos puedas soñar
D# A# Cm
Trataré, que crees que estoy bien y fingiré
A# G#
Que no me duele verte con el
D# A#
Aunque por dentro muera otra vez.

(3 VECES)


Alex - NacionX