Sex Action

L.a. Guns

Genero: Rock

Tablatura

Sex Action- La Guns
Tabbed by: Robert Yglesias
Email: rhamiyglesias@msn.com
Tuning: standard

[tab][Riff a] ending 1 2
e|----------------------------|------------------------|-----|10-----10---8--|
B|----------------------------|------------------------|-----|10^(11)10p8-8~-|
G|----------------------------|------------------------|2^(4)|---------------|
D|-2-------------0----------2-|-2-------------0--------|-----|---------------|
A|-2------------2-----------2-|-2------------2---------|-----|---------------|
E|-0-0000000-2/3--2~-2-3p2--0-|-0-0000000-2/3--2~2-3p2-|-----|----------------|[/tab]

[tab][Riff b]
e|---------------------------------------|-----------------------------------|
B|----------------5-3--------------------|--------------5-3------------------|
G|----------------4-2-2p0----------------|--------------4-2-2p0--------------|
D|-2---------0h2------2p0-2p0--0h2p0h2p0-|-2--------0h2-----2p0-0h2----------|
A|-2---------0h2----------2p0-2----------|-2--------0h2---------0h2------2320|
E|-0-0000000-----0-----------------------|-0-0000000---0-------------0235----|[/tab]

[tab][Riff c]
e|---------------------------------------------------------------------------|
B|----------------17p15-14h15p14---------------------------------------------|
G|-2-2--14-14-14----------------16p14-13h14p13-------------------------------|
D|-2-2--14-14-14------------------------------14-16-------------------2------|
A|-0-0--0--0--0-------------------------------------2/3-2-0---0-------2------|
E|----------------------------------------------------------3---3-2-0-0------|[/tab]

[tab][Chorus 1] also outro
e|----------------|-0---0-----0--------|-----------------0---0----0----------|
B|-3-3---3---3----|5-5-3-3-------------|-3-3---3---3----5-5-3-3--------------|
G|-2-2-2-0---0----|-------2/4-4-2-0----|2-2-2-0---0-----------2/4-4--2^(4)---|
D|-0-0-2-0---0---2|----------------2-0-|0-0-2-0---0---2----------------------|
A|-----0---------2|--------------------|----0---------2----------------------|
E|-------3---3-2-0|--------------------|------3---3-2-0----------------------|[/tab]

[tab][Riff d] play 2xs [solo] {play 5xs }
e|---------------------------|-----15-----------------|------------|---------|
B|---------------------------|-15^-1515------------12-|------17-17-|-20(21)20|
G|---------------------------|-14^---14^(15)p12-14-12~|19^(20)-----|---------|
D|-2-----------------------2-|------------------------|------------|---------|
A|-2-----------------------2-|------------------------|------------|---------|
E|-0-0000000-0-2-3-5-3-2-0-0-|------------------------|------------|---------|[/tab]

[tab] A.H.
e|---------------------------------------------------------------------------|
B|---------------------------------------------------------------------------|
G|3-0h3p0h3p0h2p0h2p0h2p0--3^(5)p3p2p0---------------------------------------|
D|-----------------------------------------------------9h10p9h10-10h12-14-14-|
A|------------------------------------2------9h10-12-12----------------------|
E|-------------------------------------3~(5)---------------------------------|[/tab]

[tab]e|-----------------------12----------------------20^20^~-17-20-17h20p17h20p17|
B|---------------------12--15^(17)~--20-----20-17----------------------------|
G|11h12p11h12-12-14^(15)-------------19^(20)---------------------------------|
D|---------------------------------------------------------------------------|
A|---------------------------------------------------------------------------|
E|---------------------------------------------------------------------------|[/tab]

[tab] [Ending solo]
e|---------------------------------------------------|-------17--------------|
B|17h20p17h20p17h20p17--------------------------17---|----20-17-------20-17--|
G|--------------------17h19p17h19-16h17p16h17--17-19~|17h19^---19^p17-19-17-15
D|-------------------------------------------19------|----------------------14
A|---------------------------------------------------|-----------------------|
E|---------------------------------------------------|-----------------------|[/tab]

**********************************************
| / slide up ~ vibrato
| \ slide down + harmonic
| h hammer-on x Mute note
| p pull-off ^ bend note
**********************************************

[Riff a] w/ending 1
Talk about love, talk about love
[Riff b]
I've been around this great big world, yeah, Had my share of shady, deals and girls, hey
[Riff c]
Now, I've been thinking of, the coming attraction, The wink of an eye and the
gleam of satisfaction
[Riff a]
Talk about love Talk about love

[Chorus 1]
Here she comes, never get enough of that sex action
Baby knows wherever she goes She got sex action
[Riff a]
Howze baby, I got the potion, You're a cool operator got the machine in motion
[Riff c]
Now, we're all alone doing all the talking,She's got me on my back Let her fingers do the walking
[Riff a]
Talk about love Talk about love
[Chorus 1]
Here she comes, I never get enough of her sex action Baby knows wherever she goes
She got sex action
[Solo]
[End solo w/riff a]
Talk about love, Talk about love

Her she comes, I never get enough of that sex action, S-E-X, who's next, yeah sex action
[Riff d]
And it always feels so good
[Riff a] w/ending 2
Girl she got style Boy she got sleaze Ah, she's knocking them dead She's got me down on my knees
[Riff c]
Now listen, I'm a sex gun lover in the heat of the night Don't run for cover I got you in my sights
[Riff a]
Talk about love Talk about love

Chorus 1 repeat till end last three verses with outro
Here she comes, I never get enough of that sex action
Baby knows wherever she goes there'll be sex action
S-E-X, I know who's next for sex action Baby knows wherever she goes
she's gonna get it (sex action), she's gonna get it (sex action)
I'm gonna give to her, (sex action), yeah
she's gonna get it (sex action), sex (sex action), sex (sex action)