One Way Ticket

L.a. Guns

Genero: Pop

Tablatura

One Way Ticket To Love
L.A. Guns

intro (acoustic)

Am | G |

[tab]|--------------------------------------------------------------------|
|--------------------------------------------------------------------|
|-------------5--------7-----------4----------5---------4------------|
|----------------7--------7------------5---------5----------5--------|
|----------7-------7--------7-------------5---------5----------------|
|------5-------------------------------------------------------------|[/tab]

F#m | C

[tab]|------------------------------------------------------3-------------|
|--------------------------------------------------1-------1---------|
|---------2-----------4-----------------------0---------------0------|
|-----4------4-----------4---------------2-----------------------2---|
|--4-------------4-----------4-------3-------------------------------|
|--------------------------------------------------------------------|[/tab]

[tab]|---------------------3--------------------|
|-----------------1-------1----------------|
|------------0-----------------------------|
|--------0---------------------------------|
|----2----------------------------3---2----|
|------------------------------------------|[/tab]

then you play the bridge several times

[tab]|-------------------------------------------------------------------|
|-------------------------------------------------------------------|
|------------5-----------7------------4----------5------------------|
|----------------7----------7-------------5-------------------------|
|-------7-----------7----------7-------------5-----------3----2-----|
|---5---------------------------------------------------------------|[/tab]


and two times this

| Dm | C

[tab]|-------------------------------------------------------------------|
|-------------------------------------------------------------------|
|-----------------10------------12----------------9-------------10--|
|----------------------12------------12---------------10------------|
|------------12------------12-------------12--------------10--------|
|-13--12-10---------------------------------------------------------|[/tab]


for any suggest contact me

ivans1984@gmail.com