One More Reason

L.a. Guns

Album: L.A. Guns
Genero: Pop

Tablatura (Ver letra)

-------------------------------------------------------------------------------
one more reason by la guns
-------------------------------------------------------------------------------
Tabbed by:lewis guns
Email:laguns2011@hotmail.com

Tuning:Standard

[tab]Intro play 3x 4 time is
e|-----------------------|--------------------------------------------------|
B|-----------------------|--------------------------------------------------|
G|--7-9---9-7--7-9-------|--7-9--9-7---7-9---------2------------------------|
D|--5-7---7-5--5-7---5-5-|--5-7--7-5---5-7----5----2------------------------|
A|00----00---00---0--3-3-|00---00---00-----0--3-3--0------------------------|
E|-----------------------|----------------------5---------------------------|[/tab]
[tab] verse x3 4th time go into chorus
e|-----------------------------------------------------------------------|
B|-----------------------------------------------------------------------|
G|---------------2-------------------------------------------------------|
D|-----------5---2-------------------------------------------------------|
A|0000000000-3-5-0-------------------------------------------------------|
E|-------------3---------------------------------------------------------|
chorus[/tab]

[tab]e|------------------------------------------------------------------------|
B|------------------------------------------------------------------------|
G|-----------------------------9--9--9--9---------------------9--9--9-----|
D|--------5--------------------7--7--7--7-5-------------------7--7--7--7--|
A|333333--3-5-333333-555555-00--00-00 00--3-5-333333-555555-00-00-00-00---|
E|111111----3-111111-333333-----------------3-111111-333333---------------|
***** ***** *****[/tab]

[tab]bridge
x2 x2 entire thing 2
e|---------------|--------------------------------------|
B|---10-----10---|----8-----8---------------------------|
G|-9---9--9---9--|--7--7--7--7--------------------------|
D|7------7-------|-5-----5------------------------------|
A|---------------|--------------------------------------|
E|---------------|--------------------------------------|
****************************
solo[/tab]

[tab]e|10t9t8t7t--------------------17-17-17/10-10-10/--------10-10-10/17-17-17/-|
B|---------0t-----------------------------------10-10-10/-------------------|
G|-----------13h14h13h14h13h14h---------------------------------------------|
D|--------------------------------------------------------------------------|
A|--------------------------------------------------------------------------|
E|--------------------------------------------------------------------------|[/tab]

[tab]e|19-19-21b------------------------------------------------|
B|---------------------------------------------------------|
G|---------------------------------------------------------|
D|---------------------------------------------------------|
A|---------------------------------------------------------|
E|---------------------------------------------------------|[/tab]


/=slide
*=palm mute
t=trill
b=bend