No Mercy

L.a. Guns

Genero: Pop

Tablatura

NO MERCY
As recorded by L.A. Guns
(From the 1988 Album L.A. GUNS)


Transcribed by Mookmod

Words by Phil Lewis Music by Tracii Guns, Mick Cripps, Kelly Nickels & Steve Riley
Arranged by L.A. Guns


Gtr I (E A D G B E) - 'Rhythm Guitar - Mick Cripps'
Gtr II (E A D G B E) - 'Rhythm Guitar II - Tracii Guns'
Gtr III (E A D G B E) - 'Lead Guitar - Tracii Guns'


Intro
Moderate Rock Q=188
D5/C5/G D5/C5/G
4/4
Gtr I
H Q E E +E E Q Q E E +E E Q Q E E
[tab]|---------------|-----------------|-----------------|
|---------------|-----------------|-----------------|
|---------------|-------7--5------|-------7--5------|
|---------------|-------7--5------|-------7--5------|
|------x\--x\-0-|-(0)-0-------0-0-|-(0)-0-------0-0-|
|---------------|-----------------|-----------------|[/tab]


[tab] D5/C5/G D5/C5/G D5/C5/G
+E E Q Q E E +E E Q Q E E E E Q Q E E
|-----------------|-----------------|---------------|
|-----------------|-----------------|---------------|
|-------7--5------|-------7--5------|-----7--5------|
|-------7--5------|-------7--5------|-----7--5------|
|-(0)-0-------0-0-|-(0)-0-------0-0-|-0-0-------0-0-|
|-----------------|-----------------|---------------|[/tab]
|
[tab]| Gtr II
| W W Q Q Q Q
|-----------------|-----------------|---------------|
|-----------------|-----------------|---------------|
|-----------------|-----------------|---------------|
|-----------------|-----------------|-2------2------|
|-----------------|-----------------|-0------0------|
|-----------------|-----------------|---------------|[/tab]


[tab] D5/C5/G D5/C5/G N.C.
+E E Q Q E E +E E Q Q E E +E E E E E E E E
|-----------------|---------------5-|-(5)-4-3-----------|
|-----------------|-----------------|---------5-4-3-----|
|-------7--5------|-------7--5------|---------------5---|
|-------7--5------|-------7--5------|-------------------|
|-(0)-0-------0-0-|-(0)-0-------0---|-----------------0-|
|-----------------|-----------------|-------------------|[/tab]
|
[tab]| Q Q Q Q Q Q Q E E +E E E E E E E E
|-----------------|-----------------|-------------------|
|-----------------|-----------------|-------------------|
|-----------------|---------------2-|-(2)-1-0-----------|
|--2-------2------|--2-------2------|---------2-1-0-----|
|--0-------0------|--0-------0------|---------------3-0-|
|-----------------|-----------------|-------------------|[/tab]


[tab] D5/C5/G D5/C5/G D5/C5/N.C.
Gtr I
+E E Q Q E E +E E Q Q E E +E E Q Q E E
|-----------------|-----------------|-----------------|
|-----------------|-----------------|-----------------|
|-------7--5------|-------7--5------|-------7--5------|
|-------7--5------|-------7--5------|-------7--5--0-0-|
|-(0)-0-------0-0-|-(0)-0-------0-0-|-(0)-0-----------|
|-----------------|-----------------|-----------------|[/tab]
|
[tab]| Gtr II
| E E Q Q E E +E E Q Q E E +E E Q Q E E
|-----------------|-----------------|-----------------|
|-----------------|-----------------|-----------------|
|-------7--5------|-------7--5------|-------7--5------|
|-------7--5------|-------7--5------|-------7--5------|
|--0--0-------0-0-|-(0)-0-------0-0-|-(0)-0-------0-0-|
|-----------------|-----------------|-----------------|[/tab]
|
[tab]| Gtr III
| W W W
|-----------------|-----------------|-----------------|
|-----------------|-----------------|-----------------|
|-----------------|-----------------|-----------------|
|-----------------|-----------------|-----------------|
|-----------------|-----------------|-----------------|
|-----------------|-----------------|-----------------|[/tab]


[tab] E E E E E E E E
|----------------------------------------||
|----------------------------------------||
|----------------------------------------||
|--0h===1p====0-----------------1p==0----||
|--------------------3---0-------------3-||
|----------------------------------------||[/tab]
|
[tab]| +E E Q Q E E
|----------------------------------------||
|----------------------------------------||
|-------------7----------5---------------||
|-------------7----------5---------------||
|-(0)---0---------------------------0--0-||
|----------------------------------------||[/tab]
|
[tab]| E +E +E +E +E +E +E E
|----------------------------------------||
|----------------------------------------||
|----------------------------------------||
|----------------------------------------||
|--5b7r(5)b7r(5)b7==(5)r(5)b7==(5)r(5)p3-||
|----------------------------------------||[/tab]


[tab] Verse 1
A5
Q E E E E E E E E E E E E E E +Q E E E E E E +H +E E E E
|----------------|-----------------|----------------0-|-(0)-------(0)-------|
|----------------|-----------------|----------------0-|-(0)-------(0)-------|
|-2--------------|-----------0-0-2-|-(2)------------0-|-(0)-------(0)-0-0-2-|
|-2--------------|-----------0-0-2-|-(2)--------------|---------------0-0-2-|
|-0--0-0-0-0-0-0-|-0-0-0-0-0-----0-|-(0)--0-0-0-0-0---|-------------------0-|
|----------------|-----------------|------------------|---------------------|[/tab]
|
[tab]| Gtr II
| Q E E E E E E E E E E E E E E +Q E E E E E E E E E E E E E E
|----------------|-----------------|------------------|---------------------|
|----------------|-----------------|------------------|---------------------|
|-2--------------|-----------0-0-2-|-(2)--------------|---------------0-0-2-|
|-2--------------|-----------0-0-2-|-(2)--------------|---------------0-0-2-|
|-0--0-0-0-0-0-0-|-0-0-0-0-0-----0-|-(0)--0-0-0-0-0-0-|--0--0-0-0--0------0-|
|----------------|-----------------|------------------|---------------------|[/tab]


[tab] C5
+Q E E E E E E +Q E E E E E E +H E E E E +H.. E
|-------------------|-----------------0-|-(0)---------------|--------------||
|-------------------|-----------------0-|-(0)---------------|--------------||
|-(2)---------2p0-2-|-(2)-------------0-|-(0)-----------0-2-|-(2)--------5-||
|-(2)---------2p0-2-|-(2)---------------|---------------0-2-|-(2)--------5-||
|-(0)---0-0-0-0---0-|-(0)---0-0-0-0-0---|-----------0-0---0-|-(0)--------3-||
|-------------------|-------------------|-------------------|--------------||[/tab]
|
[tab]| E E E E E E E E E E E E E E E E E E E E E E E E +H.. E
|-------------------|-------------------|-------------------|--------------||
|-------------------|-------------------|-------------------|--------------||
|-----------------2-|-----------------2-|-----------------2-|-(2)--------5-||
|-----------------2-|-----------------2-|-----------------2-|-(2)--------5-||
|--0--0-0-0-0-0-0-0-|--0--0-0-0-0-0-0-0-|--0--0-0-0-0-0-0-0-|-(0)--------3-||
|-------------------|-------------------|-------------------|--------------||[/tab]


[tab] Chorus
D5 D5/C5/G D5/C5/G C5
Gtrs I, II
+H Q. E +H Q E E +E E Q Q E E +E E Q Q E E
|---------------|---------------|-----------------|-----------------|
|---------------|---------------|-----------------|-----------------|
|-(5)---------7-|-(7)-----------|-------7--5------|-------7--5----5-|
|-(5)---------7-|-(7)-----------|-------7--5------|-------7--5----5-|
|-(3)---------5-|-(5)-------0-0-|-(0)-0-------0-0-|-(0)-0-------0-3-|
|---------------|---------------|-----------------|-----------------|[/tab]


[tab] D5
Gtr II
+H Q. E +H Q E E
|---------------|---------------|
|---------------|---------------|
|-(5)---------7-|-(7)-----------|
|-(5)---------7-|-(7)-----------|
|-(3)---------5-|-(5)-------0-0-|
|---------------|---------------|[/tab]
|
[tab]| Gtr I
| +H Q. E +H Q E E
|---------------|---------------|
|---------------|---------------|
|-(5)---------7-|-(7)-----------|
|-(5)---------7-|-(7)-----------|
|-(3)---------5-|-(5)-------0-0-|
|---------------|---------------|[/tab]


[tab] D5/A C5/G D5/C5/G C5
+E E Q Q E E +E E Q Q E E
|--------------------------------------|-------------------------|
|--------------------------------------|-------------------------|
|---------7------5---------------------|----------7--5---------5-|
|---------7------5---------------------|----------7--5---------5-|
|-(0)-0--------------------0-----0-----|---(0)--0----------0---3-|
|--------------------------------------|-------------------------|[/tab]
|
[tab]| \0.5______| \0.5_______/ |
| Q Q +Q +E E +H. +E E
|-------<15>--(<15>)----(<15>)-<15>----|-(<15>)---------(<15>)---|
|--------------------------------------|-------------------------|
|--------------------------------------|-----------------------5-|
|--------------------------------------|-----------------------5-|
|--------------------------------------|-----------------------3-|
|--------------------------------------|-------------------------|[/tab]


[tab] D5 E5
+H Q. E +H Q. E
|---------------|---------------|
|---------------|---------------|
|-(5)---------7-|-(7)---------9-|
|-(5)---------7-|-(7)---------9-|
|-(3)---------5-|-(5)---------7-|
|---------------|---------------|[/tab]
|
[tab]| H Q. E +H Q. E
|---------------|---------------|
|---------------|---------------|
|--5----------7-|-(7)---------9-|
|--5----------7-|-(7)---------9-|
|--3----------5-|-(5)---------7-|
|---------------|---------------|[/tab]


[tab] ~~~
E E E E E E E E E E E E a Q. S S
|-------------------------|-------------12S14------15p14-|
|-------------------------|-------12-14------------------|
|-------------------------|-12-14------------------------|
|-------------------12-14-|------------------------------|
|-------10-12-12h14-------|------------------------------|
|-10-12-------------------|------------------------------|[/tab]
|
[tab]| E E E E E E E E E E E E E E E E
|-------------------------|------------------------------|
|-------------------------|------------------------------|
|--9--9--9--9--9--9--9--9-|--9--9--9--9-----9--9-9--9----|
|--9--9--9--9--9--9--9--9-|--9--9--9--9-----9--9-9--9----|
|--7--7--7--7--7--7--7--7-|--7--7--7--7-----7--7-7--7----|
|-------------------------|------------------------------|[/tab]


[tab] N.C.
H. E E +E E E E E E E E
|-12------------------|-----------------------------|
|---------------------|-----------------------20b22-|
|---------------12-14-|-(14)-13-12------------------|
|---------------------|------------14-13-12---------|
|---------------------|-----------------------------|
|---------------------|-----------------------------|[/tab]
|
[tab]| E E E E Q. E +E E E E E E E E
|-------------------5-|--(5)--4--3------------------|
|---------------------|-------------5--4--3---------|
|--9--9-9-9-9---------|---------------------5-------|
|--9--9-9-9-9---------|-----------------------------|
|--7--7-7-7-7---------|------------------------0----|
|---------------------|-----------------------------|[/tab]


[tab] D5/AC5/G D5/AC5/G
Q Q Q Q Q Q Q E S S
|---------17---------17---|---------17---------17-17h20--|
|-20b22-------20b22-------|-20b22-------20b22------------|
|-------------------------|------------------------------|
|-------------------------|------------------------------|
|-------------------------|------------------------------|
|-------------------------|------------------------------|[/tab]
|
[tab]| +E E Q Q E E +E E Q Q E E
|-------------------------|------------------------------|
|-------------------------|------------------------------|
|----------7---5----------|----------7---5---------------|
|----------7---5----------|----------7---5---------------|
|-(0)---0-------------0-0-|-(0)---0-------------0--0-----|
|-------------------------|------------------------------|[/tab]


[tab] D5/A C5/G
S S S S S S S S S S S S S S S S
|-17h20p17----------------------------------------|
|----------20-17h20p17----------------------------|
|----------------------19-17h19p17----------------|
|----------------------------------19-17h19p17----|
|----------------------------------------------19-|
|-------------------------------------------------|[/tab]
|
[tab]| E E Q Q E E
|-------------------------------------------------|
|-------------------------------------------------|
|--------------7-----------5----------------------|
|--------------7-----------5----------------------|
|--x-----0-----------------------------0-----0----|
|-------------------------------------------------|[/tab]


[tab] D5/A C5/G
S S S S E E H
|------------------------------||
|------------------------------||
|------------------------------||
|------------------------------||
|-17h=19p17--------------------||
|-----------20p17-17-17\-------||[/tab]
|
[tab]| +E E Q Q E E
|------------------------------||
|------------------------------||
|---------------7-----5--------||
|---------------7-----5--------||
|-(0)-----0---------------0-0--||
|------------------------------||[/tab]


[tab] Verse 2
A5
Q E E E E E E E E E E E E E E +Q E E E E E E +H. E E
|----------------|-----------------|----------------0-|-(0)---------------|
|----------------|-----------------|----------------0-|-(0)---------------|
|-2--------------|-----------0-0-2-|-(2)------------0-|-(0)-----------0-2-|
|-2--------------|-----------0-0-2-|-(2)--------------|---------------0-2-|
|-0--0-0-0-0-0-0-|-0-0-0-0-0-----0-|-(0)--0-0-0-0-0---|-----------------0-|
|----------------|-----------------|------------------|-------------------|[/tab]
|
[tab]| Q E E E E E E E E E E E E E E +Q E E E E E E E E E E E E E E
|----------------|-----------------|------------------|-------------------|
|----------------|-----------------|------------------|-------------------|
|-2--------------|-----------0-0-2-|-(2)--------------|-------------0-0-2-|
|-2--------------|-----------0-0-2-|-(2)--------------|-------------0-0-2-|
|-0--0-0-0-0-0-0-|-0-0-0-0-0-----0-|-(0)--0-0-0-0-0-0-|--0--0-0-0-0-----0-|
|----------------|-----------------|------------------|-------------------|[/tab]


[tab] +Q E E E E E E +Q E E E E E E
|------------------|-----------------0-|
|------------------|-----------------0-|
|-(2)----------0-2-|-(2)-------------0-|
|-(2)----------0-2-|-(2)---------------|
|-(0)--0-0-0-0---0-|-(0)---0-0-0-0-0---|
|------------------|-------------------|[/tab]
|
[tab]| +Q E E E E E E E E E E E E E E
|------------------|-------------------|
|------------------|-------------------|
|-(2)--------------|-------------0-0-2-|
|-(2)--------------|-------------0-0-2-|
|-(0)--0-0-0-0-0-0-|--0--0-0-0-0-----0-|
|------------------|-------------------|[/tab]


[tab] N.C.
+H.. E +E E E E E E E E
|-(0)-------------5-|-(5)-4-3-----------||
|-(0)---------------|---------5-4-3-----||
|-(0)---------------|---------------5---||
|-------------------|-------------------||
|-------------------|-------------------||
|-------------------|-----------------0-||[/tab]
|
[tab]| +Q E E E E E E +E E E E E E E E
|-------------------|-------------------||
|-------------------|-------------------||
|-(2)-------------2-|-(2)-1-0-----------||
|-(2)---------------|---------2-1-0-----||
|-(0)---0-0-0-0-0---|---------------3---||
|-------------------|-----------------0-||[/tab]


[tab] Bridge
A5/EG5/D A5/EG5/D
+E E Q Q E E +E E Q Q E E
|-------------------|-------------------|
|-------------------|-------------------|
|-------------------|-------------------|
|-------7---5-------|-------7---5-------|
|-------7---5-------|-------7---5-------|
|-(0)-0---------0-0-|-(0)-0---------0-0-|[/tab]
|
[tab]| E E E E E E E E E E E E E E E E
|-------------------|-------------------|
|-------------------|-------------------|
|-------------------|-------------------|
|-------------------|-------------------|
|-------------------|-------------------|
|--0--0-0-0-0-0-0-0-|--0--0-0-0-0-0-0-0-|[/tab]


[tab] A5/EG5/D A5/EG5/D
+E E Q Q E E +E E Q Q E E
|-------------------|-------------------|
|-------------------|-------------------|
|-------------------|-------------------|
|-------7---5-------|-------7---5-------|
|-------7---5-------|-------7---5-----0-|
|-(0)-0---------0-0-|-(0)-0---------3---|[/tab]
|
[tab]| E E E E E E E E E E E E E E E E
|-------------------|-------------------|
|-------------------|-------------------|
|-------------------|-------------------|
|-------------------|-------------------|
|-------------------|-----------------0-|
|--0--0-0-0-0-0-0-0-|--0--0-0-0-0-0-3---|[/tab]


[tab] D5/AC5/G D5/AC5/G
+E E Q Q E E +E E Q Q E E
|-------------------|-------------------|
|-------------------|-------------------|
|-------7---5-------|-------7---5-------|
|-------7---5-------|-------7---5-------|
|-(0)-0---------0-0-|-(0)-0---------0-0-|
|-------------------|-------------------|[/tab]
|
[tab]| E E E E E E E E E E E E E E E E
|-------------------|-------------------|
|-------------------|-------------------|
|-------------------|-------------------|
|-------------------|-------------------|
|--0--0-0-0-0-0-0-0-|--0--0-0-0-0-0-0-0-|
|-------------------|-------------------|[/tab]


[tab] D5/AC5/G D5/AC5/G C5
+E E Q Q E E +E E Q Q E E
|-------------------|-------------------||
|-------------------|-------------------||
|-------7---5-------|-------7---5-----5-||
|-------7---5-------|-------7---5-----5-||
|-(0)-0---------0-0-|-(0)-0---------0-3-||
|-------------------|-------------------||[/tab]
|
[tab]| E E E E E E E E E E E E E E E E
|-------------------|-------------------||
|-------------------|-------------------||
|-------------------|-----------------5-||
|-------------------|-----------------5-||
|--0--0-0-0-0-0-0-0-|--0--0-0-0-0-0-0-3-||
|-------------------|-------------------||[/tab]


[tab] Chorus
D5 D5/C5/G D5/C5/G C5
Gtrs I, II
+H Q. E +H Q E E +E E Q Q E E +E E Q Q E E
|---------------|---------------|-----------------|-----------------|
|---------------|---------------|-----------------|-----------------|
|-(5)---------7-|-(7)-----------|-------7--5------|-------7--5----5-|
|-(5)---------7-|-(7)-----------|-------7--5------|-------7--5----5-|
|-(3)---------5-|-(5)-------0-0-|-(0)-0-------0-0-|-(0)-0-------0-3-|
|---------------|---------------|-----------------|-----------------|[/tab]


[tab] D5 D5/C5/G D5/C5/G C5
+H Q. E +H Q E E +E E Q Q E E +E E Q Q E E
|---------------|---------------|-----------------|-----------------|
|---------------|---------------|-----------------|-----------------|
|-(5)---------7-|-(7)-----------|-------7--5------|-------7--5----5-|
|-(5)---------7-|-(7)-----------|-------7--5------|-------7--5----5-|
|-(3)---------5-|-(5)-------0-0-|-(0)-0-------0-0-|-(0)-0-------0-3-|
|---------------|---------------|-----------------|-----------------|[/tab]


[tab] D5 E5
+H Q. E +H Q. E E E E E E E E E
|---------------|---------------|-----------------|
|---------------|---------------|-----------------|
|-(5)---------7-|-(7)---------9-|-9-9-9-9-9-9-9-9-|
|-(5)---------7-|-(7)---------9-|-9-9-9-9-9-9-9-9-|
|-(3)---------5-|-(5)---------7-|-7-7-7-7-7-7-7-7-|
|---------------|---------------|-----------------|[/tab]


[tab] N.C. A5
Gtr II
E E E E E E E E E E E E Q. E E E E E E E E E
|-----------------|--------------5-|-5-4-3-----------|
|-----------------|----------------|-------5-4-3-2---|
|-9-9-9-9-9-9-9-9-|-9-9-9-9-9------|---------------2-|
|-9-9-9-9-9-9-9-9-|-9-9-9-9-9------|---------------2-|
|-7-7-7-7-7-7-7-7-|-7-7-7-7-7------|---------------0-|
|-----------------|----------------|-----------------|[/tab]
|
[tab]| Gtr I
| E E E E E E E E E E E E Q. E E E E E E E E E
|-----------------|--------------5-|-----------------|
|-----------------|----------------|-----------------|
|-9-9-9-9-9-9-9-9-|-9-9-9-9-9------|-2-1-0---------2-|
|-9-9-9-9-9-9-9-9-|-9-9-9-9-9------|-------2-1-0---2-|
|-7-7-7-7-7-7-7-7-|-7-7-7-7-7------|-------------4-0-|
|-----------------|----------------|-----------------|[/tab]


[tab] ~~~~~~~~~~~~~~~~~
Q H. +W Q E E H Q Q +Q. +E
|------15---------|-(15)-----------|---------------|-------------------||
|-----------------|----------------|---------------|-------------------||
|-----------------|----------------|------2--------|-------------------||
|-----------------|----------------|------2--------|-------------------||
|-----------------|----------------|------0--------|-------------------||
|-----------------|----------------|---------------|----3b5--(3)---(3)-||[/tab]
|
[tab]| +Q E E H H Q E E +Q E E H W
|-----------------|----------------|---------------|-------------------||
|-----------------|----------------|---------------|-------------------||
|-(2)---2---------|--------------2-|-(2)--2--------|-------------------||
|-(2)---2---------|--------------2-|-(2)--2--------|-------------------||
|-(0)---0---------|--------------0-|-(0)--0--------|-------------------||
|-----------------|----------------|---------------|-------------------||[/tab]


[tab] Guitar Solo - Tracii Guns
D5
S S S S S S S S S S S S S S S S
|---------------------------------------------|
|---------------------------------------------|
|---------------------------------------------|
|---------------------------------10h12p10h12-|
|-----------8h10p8h10-10h12p10h12-------------|
|-8h10p8h10-----------------------------------|[/tab]
|
[tab]| E E E E E E E E
|---------------------------------------------|
|---------------------------------------------|
|-7----7----7----7-----7-----7-----7-----7----|
|-7----7----7----7-----7-----7-----7-----7----|
|-5----5----5----5-----5-----5-----5-----5----|
|---------------------------------------------|[/tab]


[tab] S S S S S S S S S S S S S S S S
|-------------------------------------------------|
|-------------------------12h13p12h13-13h15p13h15-|
|-10h12p10h12-12h13p12h13-------------------------|
|-------------------------------------------------|
|-------------------------------------------------|
|-------------------------------------------------|[/tab]
|
[tab]| E E E E E E E E
|-------------------------------------------------|
|-------------------------------------------------|
|--7-----7-----7-----7-----7-----7-----7-----7----|
|--7-----7-----7-----7-----7-----7-----7-----7----|
|--5-----5-----5-----5-----5-----5-----5-----5----|
|-------------------------------------------------|[/tab]


[tab] E E E E E E E E E E E E Q Q
|----17p15\-13----15p13\-12-|----13p12\-10-10---10---|
|-15-----------13-----------|-12---------------------|
|---------------------------|------------------------|
|---------------------------|------------------------|
|---------------------------|------------------------|
|---------------------------|------------------------|[/tab]
|
[tab]| E E E E E E E E E E E E E E E E
|---------------------------|------------------------|
|---------------------------|------------------------|
|--7--7--7---7--7--7--7---7-|--7--7--7---7--7-7--7-7-|
|--7--7--7---7--7--7--7---7-|--7--7--7---7--7-7--7-7-|
|--5--5--5---5--5--5--5---5-|--5--5--5---5--5-5--5-5-|
|---------------------------|------------------------|[/tab]


[tab] E E E E E E E E E E Q E E E E
|-10-10-12-12-12-12-13-13-|-13-13-12---12-13-12-10-|
|-------------------------|------------------------|
|--7--7--9--9--9--9-10-10-|-10-10--9----9-10--9--7-|
|-------------------------|------------------------|
|-------------------------|------------------------|
|-------------------------|------------------------|[/tab]
|
[tab]| E E E E E E E E E E E E E E E E
|-------------------------|------------------------|
|-------------------------|------------------------|
|--7--7--7--7--7--7--7--7-|--7--7--7-7--7--7--7--7-|
|--7--7--7--7--7--7--7--7-|--7--7--7-7--7--7--7--7-|
|--5--5--5--5--5--5--5--5-|--5--5--5-5--5--5--5--5-|
|-------------------------|------------------------|[/tab]


[tab] A5
E E E E Q. E +H. E E
|-10-10-10-10--------------|----------------------20-|
|--------------------20b22r|=(20)-----------20b22----|
|--7--7--7--7-x------------|-------------------------|
|--------------------------|-------------------------|
|--------------------------|-------------------------|
|--------------------------|-------------------------|[/tab]
|
[tab]| E E E E E E E E E E E E E E E E
|--------------------------|-------------------------|
|--------------------------|-------------------------|
|--7--7--7--7-7--7-7--2----|---2--2-2-2-2-2--2-----2-|
|--7--7--7--7-7--7-7--2----|---2--2-2-2-2-2--2-----2-|
|--5--5--5--5-5--5-5--0----|---0--0-0-0-0-0--0-----0-|
|--------------------------|-------------------------|[/tab]


[tab] +H.. E E S S E E +E E E E
|-(20)----------------|------------------------|
|---------------------|------------------------|
|-------------------x-|-7b9r7p5---5-(5)--------|
|---------------------|---------7-------7-5-6--|
|---------------------|------------------------|
|---------------------|------------------------|[/tab]
|
[tab]| E E E E E E E E E E E E E E E E
|---------------------|------------------------|
|---------------------|------------------------|
|---2---2-2-2-2-2-2-2-|-2---2---2-2--2--2-2-2--|
|---2---2-2-2-2-2-2-2-|-2---2---2-2--2--2-2-2--|
|---0---0-0-0-0-0-0-0-|-0---0---0-0--0--0-0-0--|
|---------------------|------------------------|[/tab]


E5
|---3---| |---3---| |---3---| |---3---|
[tab] E Q E +Q. E E E E E E E E E E E E E
|--------------------|-14p12------15p12------17p12------15p12------|
|-----------------12-|---------12---------12---------12---------12-|
|---5----------------|---------------------------------------------|
|-7-----7-(7)--------|---------------------------------------------|
|--------------------|---------------------------------------------|
|--------------------|---------------------------------------------|[/tab]
|
[tab]| E E E E E E E E E E E E E E E E
|--------------------|---------------------------------------------|
|--------------------|---------------------------------------------|
|-2-2-2-2--2--2-2--9-|--9----9-----9----9-----9----9-----9----9----|
|-2-2-2-2--2--2-2--9-|--9----9-----9----9-----9----9-----9----9----|
|-0-0-0-0--0--0-0--7-|--7----7-----7----7-----7----7-----7----7----|
|--------------------|---------------------------------------------|[/tab]


|---3---| |---3---| |---3---| |---3---|
[tab] E E E E E E E E E E E E
|-14p12------15p12------17p12------15p12--------|
|---------12---------12---------12---------12---|
|-----------------------------------------------|
|-----------------------------------------------|
|-----------------------------------------------|
|-----------------------------------------------|[/tab]
|
[tab]| E E E E E E E E
|-----------------------------------------------|
|-----------------------------------------------|
|--9----9-----9----9-----9----9-----9----9------|
|--9----9-----9----9-----9----9-----9----9------|
|--7----7-----7----7-----7----7-----7----7------|
|-----------------------------------------------|[/tab]


D5
|---3---| |---3---| |---3---| |---3---| |---3---| |---3---| |---3---| |---3---|
[tab] E E E E E E E E E E E E E E E E E E E E E E E E
|-14p12------15p12------17p12------15p12------|-14p12------15p12------17p12------15p12------|
|---------12---------12---------12---------12-|---------12---------12---------12---------12-|
|---------------------------------------------|---------------------------------------------|
|---------------------------------------------|---------------------------------------------|
|---------------------------------------------|---------------------------------------------|
|---------------------------------------------|---------------------------------------------|[/tab]
|
[tab]| E E E E E E E E E E E E E E E E
|---------------------------------------------|---------------------------------------------|
|---------------------------------------------|---------------------------------------------|
|--9----9-----9----9-----9----9-----9----9----|--9----9-----9----9-----9----9-----9----7----|
|--9----9-----9----9-----9----9-----9----9----|--9----9-----9----9-----9----9-----9----7----|
|--7----7-----7----7-----7----7-----7----7----|--7----7-----7----7-----7----7-----7----5----|
|---------------------------------------------|---------------------------------------------|[/tab]


|---3---| |---3---| |---3---| |---3---| |---3---| |---3---| |---3---| |---3---|
[tab] E E E E E E E E E E E E E E E E E E E E E E E E
|-12p10------13p10------15p10------13p10------|-12p10------13p10------15p10------13p10---------|
|---------10---------10---------10---------10-|---------10---------10---------10---------10----|
|---------------------------------------------|------------------------------------------------|
|---------------------------------------------|------------------------------------------------|
|---------------------------------------------|------------------------------------------------|
|---------------------------------------------|------------------------------------------------|[/tab]
|
[tab]| E E E E E E E E E E E E E E E E
|---------------------------------------------|------------------------------------------------|
|---------------------------------------------|------------------------------------------------|
|--7----7-----7----7-----7----7-----7----7----|--7----7-----7----7-----7----7-----7----7-------|
|--7----7-----7----7-----7----7-----7----7----|--7----7-----7----7-----7----7-----7----7-------|
|--5----5-----5----5-----5----5-----5----5----|--5----5-----5----5-----5----5-----5----5-------|
|---------------------------------------------|------------------------------------------------|[/tab]


|---3---| |---3---| |---3---| |---3---|
[tab] E E E E E E E E E E E E
|-12p10------13p10------15p10------13p10------|
|---------10---------10---------10---------10-|
|---------------------------------------------|
|---------------------------------------------|
|---------------------------------------------|
|---------------------------------------------|[/tab]
|
[tab]| E E E E E E E E
|---------------------------------------------|
|---------------------------------------------|
|--7----7-----7----7-----7----7-----7----7----|
|--7----7-----7----7-----7----7-----7----7----|
|--5----5-----5----5-----5----5-----5----5----|
|---------------------------------------------|[/tab]


N.C.
|---3---| |---3---|
[tab] E E E E E E E Q E +E E E E Q. E +E E E E H
|-12p10------13p10------15---------|------------------------|---------------------|
|---------10---------10-----10-----|------------------------|-------------5-------|
|----------------------------------|-------4--5--7--5-----4-|--(4)--5--7-----7----|
|-------------------------------/7-|--(7)-------------------|---------------------|
|----------------------------------|------------------------|---------------------|
|----------------------------------|------------------------|---------------------|[/tab]
|
[tab]| E E E E Q. E +E E E E Q. E +E E E E H
|----------------------------------|------------------------|---------------------|
|----------------------------------|------------------------|------------17-------|
|--7----7-----7----7-----7---------|------16-17-19-17----16-|-(16)-17-19----19----|
|--7----7-----7----7-----7------19-|-(19)-------------------|---------------------|
|--5----5-----5----5-----5---------|------------------------|---------------------|
|----------------------------------|------------------------|---------------------|[/tab]


[tab] +E E E E Q. E +E E E E Q. E
|-----------------------|----------5--7--5-------|
|------5--7--8--7-----7-|--(7)--8----------------|
|-(7)-------------------|----------------------2-|
|-----------------------|------------------------|
|-----------------------|------------------------|
|-----------------------|------------------------|[/tab]
|
[tab]| E E E E Q. E +E E E E Q. E
|-----------------------|---------17-19-17-------|
|-----17-19-20-19----19-|-(19)-20----------------|
|-19--------------------|---------------------14-|
|-----------------------|------------------------|
|-----------------------|------------------------|
|-----------------------|------------------------|[/tab]


[tab] A5
+E E E E E E E E +E E E E E E E E
|---------------------------|--------------------------||
|---------------------------|--------------------------||
|--(2)--1--0----------------|------------------------2-||
|-------------2--1--0-----2-|--(2)--1--0-------------2-||
|----------------------3----|-------------2--1--0----0-||
|---------------------------|----------------------3---||[/tab]
|
[tab]| +E E E E E E E E +E E E E E Q E
|---------------------------|--------------------------||
|---------------------------|--------------------------||
|-(14)-13-12----------------|------------------------2-||
|------------14-13-12----14-|-(14)-13-12-------------2-||
|---------------------15----|------------14-13-12\---0-||
|---------------------------|--------------------------||[/tab]


[tab] Interlude
N.C.
+Q E E E E E E +Q E E E E E E +Q E E E E E E +E E E E E E E E
|------------------|------------------|------------------|-------------------|
|------------------|------------------|------------------|-------------------|
|-(2)--2-----2---2-|-(2)--2-----2---2-|-(2)--2-----2---2-|-------------------|
|-(2)--2-----2---2-|-(2)--2-----2---2-|-(2)--2-----2---2-|-------------------|
|-(0)--0-----0---0-|-(0)--0-----0---0-|-(0)--0-----0---0-|-(0)-------------0-|
|------------------|------------------|------------------|-----0-1-2-2-3-4---|[/tab]
|
[tab]| Q E E E E E E +Q E E E E E E +Q E E E E E E E E E E E E E E
|------------------|------------------|------------------|-------------------|
|------------------|------------------|------------------|-------------------|
|--x---2-----2---2-|-(2)--2-----2---2-|-(2)--2-----2---2-|--2--2-2-2-2-2-2---|
|--x---2-----2---2-|-(2)--2-----2---2-|-(2)--2-----2---2-|--2--2-2-2-2-2-2---|
|--x---0-----0---0-|-(0)--0-----0---0-|-(0)--0-----0---0-|--0--0-0-0-0-0-0-0-|
|------------------|------------------|------------------|-------------------|[/tab]


[tab] D5/C5/G D5/C5/G
+E E Q Q E E +E E Q Q Q
|-----------------|-----------------|
|-----------------|-----------------|
|-------7--5------|-------7--5------|
|-------7--5------|-------7--5------|
|-(0)-0-------0-0-|-(0)-0-------0---|
|-----------------|-----------------|[/tab]
|
[tab]| E E Q Q E E +E E Q Q E E
|-----------------|-----------------|
|-----------------|-----------------|
|-------7--5------|-------7--5------|
|-------7--5------|-------7--5------|
|--x--0-------0-0-|-(0)-0-------0-0-|
|-----------------|-----------------|[/tab]


[tab] D5/A C5/G D5/A C5/G
S S S S S S S S S S S S E E S S S S S E. Q Q
|--------------------------------------------|-------------------------------||
|-12h=13p12h15-12h13p12----------------------|-------------------------------||
|-----------------------14-11h12p11h12p11h14-|-------------------------------||
|--------------------------------------------|-11h=12p11h12-12h14--14--/16---||
|--------------------------------------------|-------------------------------||
|--------------------------------------------|-------------------------------||[/tab]
|
[tab]| +E E Q Q E E +E E Q Q Q
|--------------------------------------------|-------------------------------||
|--------------------------------------------|-------------------------------||
|---------------7-----------5----------------|---------------7------5--------||
|---------------7-----------5----------------|---------------7------5--------||
|-(0)-----0-----------------------------0--0-|-(0)-----0-----------------0---||
|--------------------------------------------|-------------------------------||[/tab]


[tab] Verse 3
A5
Gtrs I, II
Q E E E E E E E E E E E E E E +Q E E E E E E +H +E E E E
|----------------|-----------------|----------------0-|-(0)----(0)-------|
|----------------|-----------------|----------------0-|-(0)----(0)-------|
|-2--------------|-----------0-0-2-|-(2)------------0-|-(0)----(0)-0-0-2-|
|-2--------------|-----------0-0-2-|-(2)--------------|------------0-0-2-|
|-0--0-0-0-0-0-0-|-0-0-0-0-0-----0-|-(0)--0-0-0-0-0---|----------------0-|
|----------------|-----------------|------------------|------------------|[/tab]


[tab] C5
+Q E E E E E E +Q E E E E E E +H E E E E +H.. E
|------------------|----------------0-|-(0)------------|--------------||
|------------------|----------------0-|-(0)------------|--------------||
|-(2)--------2p0-2-|-(2)------------0-|-(0)--------0-2-|-(2)--------5-||
|-(2)--------2p0-2-|-(2)--------------|------------0-2-|-(2)--------5-||
|-(0)--0-0-0-0---0-|-(0)--0-0-0-0-0---|--------0-0---0-|-(0)--------3-||
|------------------|------------------|----------------|--------------||[/tab]


[tab] Out-Chorus
D5 D5/C5/G D5/C5/G C5
+H Q. E +H Q E E +E E Q Q E E +E E Q Q E E
|---------------|---------------|-----------------|-----------------|
|---------------|---------------|-----------------|-----------------|
|-(5)---------7-|-(7)-----------|-------7--5------|-------7--5----5-|
|-(5)---------7-|-(7)-----------|-------7--5------|-------7--5----5-|
|-(3)---------5-|-(5)-------0-0-|-(0)-0-------0-0-|-(0)-0-------0-3-|
|---------------|---------------|-----------------|-----------------|[/tab]


[tab] D5 D5/C5/G D5/C5/G C5
+H Q. E +H Q E E +E E Q Q E E +E E Q Q E E
|---------------|---------------|-----------------|-----------------|
|---------------|---------------|-----------------|-----------------|
|-(5)---------7-|-(7)-----------|-------7--5------|-------7--5----5-|
|-(5)---------7-|-(7)-----------|-------7--5------|-------7--5----5-|
|-(3)---------5-|-(5)-------0-0-|-(0)-0-------0-0-|-(0)-0-------0-3-|
|---------------|---------------|-----------------|-----------------|[/tab]


[tab] D5 E5
+H Q. E +H Q. E
|---------------|---------------|
|---------------|---------------|
|-(5)---------7-|-(7)---------9-|
|-(5)---------7-|-(7)---------9-|
|-(3)---------5-|-(5)---------7-|
|---------------|---------------|[/tab]


[tab] N.C.
~~~
E E E E E E E E E E E E a Q. S S
|-------------------------|-------------12S14----15p14-|
|-------------------------|-------12h14----------------|
|-------------------------|-12h14----------------------|
|-------------------12h14-|----------------------------|
|-------10h12-12h14-------|----------------------------|
|-10h12-------------------|----------------------------|[/tab]


[tab] E5 A5
Gtr II
H. E E +E E E E E E E E +Q E E E E E E +E H Q E
|-12\---------------|-------------------|------------------|---------------*|
|-------------------|-------------------|------------------|---------------*|
|-----------------2-|-(2)-1-0---------2-|-(2)--2-----2---2-|-(2)-----------*|
|-------------------|---------2-1-0---2-|-(2)--2-----2---2-|-(2)-----------*|
|-------------------|---------------4-0-|-(0)--0-----0---0-|-(0)-----------*|
|-------------------|-------------------|------------------|---------------*|[/tab]
|
[tab]| Gtr I
| E E E E E E E E +E E E E E E E E +Q E E E E E E +E H Q E
|-----------------5-|-(5)-4-3-----------|------------------|---------------*|
|-------------------|---------5-4-3-2---|------------------|---------------*|
|--9--9-9-9-9-9-9---|-----------------2-|-(2)--2-----2---2-|-(2)-----------*|
|--9--9-9-9-9-9-9---|-----------------2-|-(2)--2-----2---2-|-(2)-----------*|
|--7--7-7-7-7-7-7---|-----------------0-|-(0)--0-----0---0-|-(0)-----------*|
|-------------------|-------------------|------------------|---------------*|[/tab]




--------------------------------------------------------------------------------


Duration Legend
---------------
W - whole; H - half; Q - quarter; E - 8th; S - 16th; T - 32nd; X - 64th; a - acciaccatura
+ - note tied to previous; . - note dotted; .. - note double dotted
Uncapitalized letters represent notes that are staccato (1/2 duration)
Irregular groupings are notated above the duration line
Duration letters will always appear directly above the note/fret number it represents the
duration for. Duration letters with no fret number below them represent rests. Multi-
bar rests are notated in the form Wxn, where n is the number of bars to rest for. Low
melody durations appear below the staff

Tablature Legend
----------------
h - hammer-on
p - pull-off
b - bend
pb - pre-bend
r - bend release (if no number after the r, then release immediately)
/\ - slide into or out of (from/to "nowhere")
s - legato slide
S - shift slide
<n> - natural harmonic
[n] - artificial harmonic
n(n) - tapped harmonic
~ - vibrato
tr - trill
T - tap
TP - trem. picking
PM - palm muting
/ - tremolo bar dip; n = amount to dip
- tremolo bar down
n/ - tremolo bar up
/n\ - tremolo bar inverted dip
= - hold bend; also acts as connecting device for hammers/pulls
<> - volume swell (louder/softer)
x - on rhythm slash represents muted slash
o - on rhythm slash represents single note slash

Misc Legend
-----------
| - bar
|| - double bar
||o - repeat start
o|| - repeat end
*| - double bar (ending)
: - bar (freetime)
$ - Segno
& - Coda
Tempo markers - <E/E./Q/Q./H/H.> = BPM(8/16=s8/s16), where s8 = swing 8ths, s16 = swing 16ths