Electric Gypsy

L.a. Guns

Album: L.A. Guns
Genero: Pop

Tablatura (Ver letra)

L.A. Guns
"Electric Gypsy"
From The 1988 Album "L.A. Guns"

Tuning: Standard (EADGBe)

Key:

h = hammer on
p = pull off
b() = bend to note in parentheses
/ = slide up
\ = slide down



Intro:

[tab]|-----------------------------------|-----------------3p2---3p2---3p2---|
|---------3-------5p3p2-5p3p2-5p3---|---------3-----------3-----3-------|
|-2-------2-------------------------|-2-------2-------------------------|
|-2-------0-------------------------|-2-------0-------------------------|
|-0--0-0-----0-0--------------------|-0--0-0-----0-0--------------------|
|-----------------------------------|-----------------------------------|[/tab]



Verse:

[tab]|-----------------------------------|-----------------------------------|
|-----------------------------------|-----------------------------------|
|-2---------------------------------|-----------------------------------|
|-2---------------------------------|-----------------5p4---5p4---5p4---|
|-0--0-0-0-0-0-0-0-0-0-0-0-0-0-0-0--|-0-0-0-0-0-0-0-0-----5-----5-------|
|-----------------------------------|-----------------------------------|[/tab]



Chorus:

[tab]|------------------------------------|
|------------------------------------|
|------------------------------------|
|--7--7---5--5--5---4-4-4---3--3--3--|
|--7--7---5--5--5---4-4-4---3--3--3--|
|--5--5---3--3--3---2-2-2---1--1--1--|[/tab]


Bridge:

Gtr.1

[tab]|-----------------------------------------------|
|-----------------------------------------------|
|-----------------------------------------------|
|-----------------------------------------------|
|--------------0-3p2p0---------------0-3p2p0----|
|----------2-3-------------------2-3------------|[/tab]


[tab]|-----------------------------------------------|
|-----------------------------------------------|
|-----------------------------------------2p0---|
|---------------------------------------2-----2-|
|---------------------0-3p2p0-------1-3---------|
|-----------------2-3---------0-1-3-------------|[/tab]


Gtr.2

[tab]|-----------------------------------------------|
|-----------------------------------------------|
|-----------------------------------------------|
|--7---7-----------------5---5------------------|
|--7---7-----------------5---5------------------|
|--5---5-----------------3---3------------------|[/tab]



[tab]|-----------------------------------------------|
|-----------------------------------------------|
|-----------------------------------------------|
|--3---3-----------------2--3--4--5--6--7--7----|
|--3---3-----------------2--3--4--5--6--7--7----|
|--1---1-----------------0--1--2--3--4--5--5----|[/tab]

Solo:

Gtr.2 Plays Chorus x4

[tab]|-----15b(17)~~~r15~~--12---------------------------------|
|--------------------------15b(17)r15p13--15b(16)-13~~~---|
|---------------------------------------------------------|
|---------------------------------------------------------|
|---------------------------------------------------------|
|---------------------------------------------------------|[/tab]


[tab]|------------------------------|
|-10b(12)~r10~~8h10p8----------|
|---------------------9--9\7-5-|
|------------------------------|
|------------------------------|
|------------------------------|[/tab]


[tab]---------------|----------------------------------------------------------|
---------------|----------------------------------------------------------|
-7b(9)-5~~~----|--13--14--17--14--13--------------------------------------|
---------------|----------------------15--14--12--12h14-12h14-15p14-12\11~|
---------------|----------------------------------------------------------|
---------------|----------------------------------------------------------|[/tab]


[tab]|------------------------------------------------|
|-8----------10---------12----------15-----------|
|-10b(12)~~--12b(14)~~--14b(16)~~---17b(19)~~~~--|
|------------------------------------------------|
|------------------------------------------------|
|------------------------------------------------|[/tab]


Gtr.2 Plays Bridge x2

[tab]|--------------------------------|----------------------------------------|
|--20b(22)~~~--------------------|----------------------------------------|
|--------------12b(14)r12~~~~~---|---------------------------------2p0----|
|--------------------------------|----3--------------------------2-----2--|
|--------------------------------|---------------------------1-3----------|
|--------------------------------|---------2---1~~~----0-1-3--------------|[/tab]


[tab]|--12-15-12-12-12-14-12-12-12-| |-14-17-14-14-14-16-14-14-14-|
|-----------------------------|x4|----------------------------|x4
|-----------------------------| |----------------------------|
|-----------------------------| |----------------------------|
|-----------------------------| |----------------------------|
|-----------------------------| |----------------------------|[/tab]



[tab]|-17-20-17-17-17-19-17-17-17-|
|----------------------------|x4
|----------------------------|
|----------------------------|
|----------------------------|
|----------------------------|[/tab]



[tab]|-20b(22)~~~-20b(22)~~~-20b(22)~~~-20b(22)~~~-20b(22)~~~~~~~~~~~~~~~--|
|---------------------------------------------------------------------|
|---------------------------------------------------------------------|
|---------------------------------------------------------------------|
|---------------------------------------------------------------------|
|---------------------------------------------------------------------|[/tab]



Song Order:

Intro x5
Verse x4
Chorus x4
Intro x2
Verse x4
Chorus x4
Bridge x2
Solo
Intro x2
Verse x4
Chorus x8