Tu Peor Error

La 5a Estación

Genero:

Tablatura

La Quinta Estación – Tu Peor Error 


[tab][Intro]
D G D A Bm A G
E|------------------------|----------------------------|
B|--7-7--8-8--10-10--8-8--|-7-7---10-10--8--10--8--10--|
G|---7-7--7-7--7-7----7-7-|--7-7----7-7---7---7--7---7-|
D|------------------------|----------------------------|
A|------------------------|----------------------------|
E|------------------------|----------------------------|[/tab]


[Estrofa]
[tab]D G
Hace tiempo que comento con la almohada,[/tab]
[tab]D A
Que tal vez soy para ti solo una carga.[/tab]
[tab]Bm A
Hace tiempo que ya no me creo nada[/tab]
[tab] G
y he notado tu sonrisa algo cansada.[/tab]


[Estrofa]
[tab] D G
Con los días se amontonan los momentos,[/tab]
[tab] D A
que perdimos por tratar de ser sinceros.[/tab]
[tab] Bm A
Y aunque no me creas creo que aun te creo,[/tab]
[tab] G
y aunque no me quieras creo que aun te quiero.[/tab]


[Coro]
[tab] D G D A
Y yo, perdida entre la confusión De no saber si sí o si no,[/tab]
[tab]Bm A G
Voy esquivando tus miradas…[/tab]
[tab]D G D A
Yo, que he sido tu peor error, Me quedo con la sensación[/tab]
[tab]Bm A G
De no tener las cosas claras[/tab]


[tab][Intro]
D G D A Bm A G
E|------------------------|----------------------------|
B|--7-7--8-8--10-10--8-8--|-7-7---10-10--8--10--8--10--|
G|---7-7--7-7--7-7----7-7-|--7-7----7-7---7---7--7---7-|
D|------------------------|----------------------------|
A|------------------------|----------------------------|
E|------------------------|----------------------------|[/tab]


[Estrofa]
[tab]D G
He tocado con la punta de los dedos[/tab]
[tab]D A
Ese cielo que prometes con tus besos,[/tab]
[tab]Bm A
Como un niño me creí todos tus cuentos,[/tab]
[tab] G
Y aunque tú me entiendas yo ya no te entiendo.[/tab]


[Estrofa]
[tab]D G
Solo quedan los recuerdos de ese invierno,[/tab]
[tab]D A
Que pasamos enterrando sentimientos,[/tab]
[tab]Bm A
Y aunque no me creas creo que aun te creo,[/tab]
[tab] G
Y aunque no me quieras creo que aun te quiero.[/tab]


[Coro]
[tab] D G D A
Y yo, perdida entre la confusión De no saber si sí o si no,[/tab]
[tab]Bm A G
Voy esquivando tus miradas[/tab]
[tab]D G D A
Yo, que he sido tu peor error, Me quedo con la sensación[/tab]
[tab]Bm A G
De no tener las cosas claras[/tab]


[Puente]
[tab] Bm A G
No he sido yo, lo amargo de tu voz, la mala entre nosotros dos…[/tab]
[tab] D D C# Bm Bm A
Y no pasa nada Si apago la luz, si busco y no estás tú,[/tab]
[tab] G A
si el tiempo no nos dijo adiós, Y todo se acaba… ¡yo![/tab]


[Solo]
D G D A Bm A G


[Coro]
[tab] D G D A
Y yo, perdida entre la confusión De no saber si sí o si no,[/tab]
[tab]Bm A G
Voy esquivando tus miradas[/tab]
[tab]D G D A
Yo, que he sido tu peor error, Me quedo con la sensación[/tab]
[tab]Bm A G
De no tener las cosas claras[/tab]


[tab][Outro]
D G D A Bm A G
E|------------------------|----------------------------|
B|--7-7--8-8--10-10--8-8--|-7-7---10-10--8--10--8--10--|
G|---7-7--7-7--7-7----7-7-|--7-7----7-7---7---7--7---7-|
D|------------------------|----------------------------|
A|------------------------|----------------------------|
E|------------------------|----------------------------|[/tab]