Me Muero

La 5a Estación

Genero:

Tablatura


F C Dm

[tab]6--------------------------------8h10h8---------------|
5--------------8----8h10vr---------------10-10vr8-----|
4--10--10--10----10--------10-10-------------------10-|
3--10--10--10-----------------------------------------|
2--8---8---8------------------------------------------|
1-----------------------------------------------------|[/tab]

Bb Gm Bb C Bb

[tab] F
Pido por tu besos[/tab]
[tab] C Dm
por tu ingrata sonrisa[/tab]
[tab] Bb Gm
por tus bellas caricias[/tab]
[tab] Bb C
eres tu mi alegría.[/tab]

[tab]Bb F
Pido que no me falles[/tab]
[tab] C Dm
que nunca te me vayas[/tab]
[tab] Bb Gm
y que nunca te olvides[/tab]
[tab] Bb C
que soy yo quien te ama.[/tab]

[tab]Bb C Bb
Que soy yo quien te espera[/tab]
[tab] C Dm
que soy yo quien te llora[/tab]
[tab] Bb Gm
que soy yo quien te anhela[/tab]
[tab] Bb C
los minutos y horas.[/tab]


[tab] Bb C F
Me muero por besarte[/tab]
[tab] C Dm
dormirme en tu boca[/tab]
[tab] Bb Gm Bb
me muero por decirte[/tab]
[tab] Gm Bb C
que el mundo se equivoca.[/tab]
[tab] Bb C F
Me muero por besarte[/tab]
[tab] C Dm
dormirme en tu boca[/tab]
[tab] Bb Gm Bb
me muero por decirte[/tab]
[tab] Gm Bb C Bb C
que el mundo se equivoca, que se equivoca[/tab]
[tab] F
que se equivoca.[/tab]

F C Dm

[tab]6--------------------------------8h10h8---------------|
5--------------8----8h10vr---------------10-10vr8-----|
4--10--10--10----10--------10-10-------------------10-|
3--10--10--10-----------------------------------------|
2--8---8---8------------------------------------------|
1-----------------------------------------------------|[/tab]

Bb Gm Bb C Bb

[tab] F
Pido por tu ausencia[/tab]
[tab] C Dm
que me hace extrañarte[/tab]
[tab] Bb Gm
que me hace soñarte[/tab]
[tab] Bb C
cuando más me haces falta.[/tab]

[tab]Bb F
Pido por la mañana[/tab]
[tab] C Dm
que a mi lado despiertas[/tab]
[tab] Bb Gm
enredado en la cama[/tab]
[tab] Bb C
ay como me haces falta[/tab]

[tab]Bb C Bb
Que soy yo quien te espera[/tab]
[tab] C Dm
que soy yo quien te llora[/tab]
[tab] Bb Gm
que soy yo quien te anhela[/tab]
[tab] Bb C
los minutos y horas.[/tab]

[tab] Bb C F
Me muero por besarte[/tab]
[tab] C Dm
dormirme en tu boca[/tab]
[tab] Bb Gm Bb
me muero por decirte[/tab]
[tab] Gm Bb C
que el mundo se equivoca.[/tab]
[tab] Bb C F
Me muero por besarte[/tab]
[tab] C Dm
dormirme en tu boca[/tab]
[tab] Bb Gm Bb
me muero por decirte[/tab]
[tab] Gm Bb C Bb C
que el mundo se equivoca, que se equivoca[/tab]
[tab] F
que se equivoca.[/tab]

Bb C F C Dm Bb Gm Bb Gm C Bb

[tab] Bb C F
Me muero por besarte[/tab]
[tab] C Dm
dormirme en tu boca[/tab]
[tab] Bb Gm Bb
me muero por decirte[/tab]
[tab] Gm Bb C Bb C
que el mundo se equivoca, que se equivoca[/tab]
[tab] F
que se equivoca.[/tab]


Xavier Fuentes Collado