Cinco Estaciones

La 5a Estación

Genero:

Tablatura

[tab]  E                                     E
1|--------4----------4---------------4--4-
2|----5-7--------5-7---7-5------5-7-----5-
3|--4----------4--------------4---------4-
4|--------------------------------------6-
5|7----------7--------------7-----------7-[/tab]


[tab] E A B E A
1|--------4----------4---------------4--5-
2|----5-7--------5-7---7-5------5-7-----5-
3|--4----------4--------------4---------6-
4|--------------------------------------7-
5|7----------7--------------7-----------7-
6|--------------------------------------5-
[/tab]

[tab]E A B E
Sobre un papel en blanco está escrito el futuro[/tab]
[tab] A B
con letras que nos hacen ver[/tab]
[tab]E A B E
que con mas tiempo y esfuerzo podemos ser uno[/tab]
[tab] A
promesas que mueren antes de nacer[/tab]

[tab]E A B E
Aquella unión confirma que me habia perdido[/tab]
[tab] A B
momentos que nos hacen bien[/tab]
[tab]E F#m
buscar la clave entre bares[/tab]
[tab] C#m
que mezclan sonidos de ayer[/tab]
[tab] A
motivos de fe[/tab]
[tab] E B
quiero decir que no hay prisa por llegar[/tab]

[tab] E A
Con cada paso que das en tu vida[/tab]
[tab] E A
haces crecer un poco de mí[/tab]
[tab] C#m A
Cinco estaciones cambiaron la mia[/tab]
[tab] C#m B
escúchame todo tiene su porqué[/tab]

[tab] E
1|--------4-8-4-----
2|----5-7-------7-5-
3|--4---------------
4|------------------
5|7-----------------[/tab]

[tab]E A B E
Por intentar hacer lo fácil y seguro[/tab]
[tab] A B
quisimos romper nuestro tren[/tab]
[tab]E A B
hablar entonces no sirvió de nada[/tab]
[tab] E A B
y aún dudo si fue lo que habia que hacer[/tab]

[tab]E A B E
En el camino perdemos a quien nos lo dijo[/tab]
[tab] A B
promesas que no olvidaré[/tab]
[tab]E F#m
partir de cero empezando a creer[/tab]
[tab] C#m
y aunque él ya no esté[/tab]
[tab] A
aunque no sepa bien[/tab]
[tab] E
ya no hay dudas[/tab]
[tab] B
algun dia llegaré[/tab]

[tab] E A
Con cada paso que das en tu vida[/tab]
[tab] E A
haces crecer un poco de mí[/tab]
[tab] C#m A
Cinco estaciones cambiaron la mia[/tab]
[tab] C#m B
escúchame todo tiene su porqué[/tab]

[tab] F#m B
Ser lo que todos quieren ser[/tab]
[tab] E
lo que todos quieren ver[/tab]
[tab] F#m B
el ver lo que ahora tu no ves[/tab]
[tab] E F#m
lo que pronto querrás ser[/tab]

[tab] E A
Con cada paso que das en tu vida[/tab]
[tab] E A
haces crecer un poco de mí[/tab]
[tab] C#m A
Cinco estaciones cambiaron la mia[/tab]
[tab] C#m B
escúchame todo tiene su porqué[/tab]

[tab] E A
Con cada paso que das en tu vida[/tab]
[tab] E A
haces crecer un poco de mí[/tab]
[tab] C#m A
Cinco estaciones cambiaron la mia[/tab]
[tab] C#m B E
escúchame todo tiene su porqué, todo tiene su porque...[/tab]

--------------------------------------------------------
Para poder tocar los punteos (arpegios) y rasguear con mas
facilidad, se puede colocar el capo en el traste 4.
Para esto la correspondencia de acordes sería:
E --> C
A --> F
B --> G
F#m --> Dm
[tab]C#m --> Am
(que por cierto... son mucho mas fáciles de tocar)[/tab]