Ahora Que Te Vas

La 5a Estación

Genero:

Tablatura

[tab]INTRO
e-------------------------------8-6-5----------------------|
B-------8v-8-6-8-8s10-----------------8-----5h7-5----------|
G---5-----------------------5------------------------------|
D----------------------------------------------------------|
A----------------------------------------------------------|
E----------------------------------------------------------|[/tab]

[tab]e--8-8-8-10-12-8-8h10-----8----8h10--8---------------------|
B---------------------------10---------10-8h10-8vvv--------|
G----------------------------------------------------------|
D----------------------------------------------------------|
A----------------------------------------------------------|
E----------------------------------------------------------|[/tab]

VERSOS

Dm Bb C F


PRE-CORO

Gm Dm Bb C/Bb


CORO

F C Dm Bb/C
F Gm Dm Bb/C


SOLO 1

Dm Bb C

[tab]e----------------------------8^10--------------------------|
B---------------5-6-8-6-5----------------------------------|
G-5/7--7-5--5-7-----------7--------------------------------|
D----------------------------------------------------------|
A----------------------------------------------------------|
E----------------------------------------------------------|[/tab]


SOLO 2

F Bb C Dm-C

[tab]e-8-6-6-5-5------------------------------------------------|
B-----------8-8^10(3)-6-5h6h5h6h5h6h5h6h5------------------|
G-----------------------------------------7-5-7------------|
D----------------------------------------------------------|
A----------------------------------------------------------|
E----------------------------------------------------------|[/tab]

[tab]e---------5-6-8^10(3)-6-6-5--------------------------------|
B---5-6-8--------------------------------------------------|
G-7--------------------------------------------------------|
D----------------------------------------------------------|
A----------------------------------------------------------|
E----------------------------------------------------------|[/tab]


ARREGLO

[tab]E-1------------1-5-----1-5----1-3-5--1------------|
B---1------3-5-----3-5------5----------1----------|
G-----3-2--------------------------------3-2------|
D-------------------------------------------------|
A-------------------------------------------------|
E-------------------------------------------------|[/tab]


bueno ahi esta esa rola, esta muy facil de tocar es cuestion que
le echen ganas ok?..es casi igual al tab anterior pero con
modificaciones y mejoras jeje espero y les sirva
me retiro entonces ahi despues les mando otras canciones algun
error que encuentren mandenme correo..
y como buen enamorado aprovecho para saludar a mi chaparra que
A amo