El Antifaz

La 25

h:ligado hacendente
^: estirar hacia abajo

Intro:
e|------1------------------------------|
B|-----1--4-3-1^-----------------------|
G|--0h2----------3-1^------------------|
D|-------------------3-1^--------------|
A|------------------------3--0-1-2-3---|
E|-------------------------------------|

e|-------------------------------------|
B|-------------------------------------|
G|-------------------------------------|
D|-------------------------------------|
A|-------------------------------------|
E|-----4--3--4-3-1----4--3--4-3-1------|


F
Voy a olvidarme de todo hasta que vuelva,
Voy aguantarme muy hondo el respirar,
A#
Voy a pintarme en la cara un antifaz,
F
Para ocultarme esta noche en la oscuridad,
C [Riff 1]
Voy a volver a estar…

F
Voy a volver a estar a donde estaba,
Y los consejos por las bolas pasaran,
A#
Voy a dejarme un resto aunque no quiera,
F
Y frecuentar los lugares que yo amaba,
C [Riff1]
Voy a volver a estar…

A# F
Casi listo ya para subir contra todo lo que da,
A# F
Y más que listo ya para subir y darle a lo que cruzara,
C C5-C5-B5-A#5 F
Cuando baje hoy a preguntarte:.. Porque te fuiste nena?...

A#
Porque te fuiste nena, nena, nena...
F
Porque te fuiste nena, nena, nena...

A#
Porque te fuiste nena, nena, nena...
F
Porque te fuiste nena, nena, nena...
C [Riff1]
Voy a volver a estar!...


[Punteo]

A# F
Y casi listo ya para subir contra todo lo que da,
A# F
Y más que listo ya para subir y darle a lo que cruzara,
C C5-C5-B5-A#5 F
Cuando baje hoy a preguntarte:.. Porque te fuiste nena?...

A#
Porque te fuiste nena, nena, nena...
F
Porque te fuiste nena, nena, nena...

A#
Porque te fuiste nena, nena, nena...
F
Porque te fuiste nena, nena, nena...
C [Riff1]
Voy a volver a estar!...


Aclaracion: Riff 1]

D|---------------------|
A|---------------------|
E|-----4--3--4-3-1-----|
© 2020 QTABs. All rights reserved.