Vivo Por Tu Amor

Javier Barrantes

Genero:

Tablatura

Si te gustó esta transcripción, más Transcripciones Cristianas en:
http://acordes.lacuerda.net/ARCH/busca-av.php?action=Amigo&req_data=U:GDLM
----------------------------------------------------------------------------

Tonalidad: G - B

Intro:

E|--------------------------------------------------------7-8-7-5--|
B|------------------------3---------------------------------------5|
G|-4-5---4--2-2-------4-5---5-5-4-5---4-5---4--2-2-----------------|
D|--------------5-5---------------------------------5-5------------|
A|-----------------------------------------------------------------|
E|-----------------------------------------------------------------|


Verso:
G D
Tú, solo Tú
Em C
Eres mi pasión
G D
Tú, mi Jesús
Em C
Tuyo es mi amor




Pre-Coro
D C
Moriste para salvarme
Em D
Y hoy vivo para amarte




Coro
G
Eres Tú lo que más quiero
Em
Eres Tú mi gran anhelo
C D
Eres Tú la melodía de mi canción
G
Tuyo son todos mis sueños
Em
Sin Tú amor siento que muero
C D
Eres Tú por quien palpita mi corazón





Interlude

E|----------------------------------------------------------------|
B|---3---------------3-5-3-3--2--3------3-------------------------|
G|-5---5-4-4-2-2----------------------5---5--4-4-2-2---4-5-4-2----|
D|-------------------------------------------------------------4--|
A|----------------------------------------------------------------|
E|----------------------------------------------------------------|




Verso
G D
Tú, solo Tú
Em C
Eres mi pasión
G D
Tú, mi Jesús
Em C
Tuyo es mi amor



Pre-Coro
D C
Moriste para salvarme
Em D
Y hoy vivo para amarte




Coro
G
Eres Tú lo que más quiero
Em
Eres Tú mi gran anhelo
C D
Eres Tú la melodía de mi canción
G
Tuyo son todos mis sueños
Em
Sin Tú amor siento que muero
C D
Eres Tú por quien palpita mi corazón




Coro (X2)
B
Eres Tú lo que más quiero
G#m
Eres Tú mi gran anhelo
E F#
Eres Tú la melodía de mi canción
B
Tuyo son todos mis sueños
G#m
Sin Tú amor siento que muero
E F#
Eres Tú por quien palpita mi corazón

Porque vivo por tu amor



Interlude:

E|-----------------------------------------------------------------------|
B|--------------------7--------------------------------------------------|
G|8-9-8--6-6------8-9---9-9-8-9---8-9-8--6-6--------8-9-6-------|
D|------------9-9----------------------------------9-9------------9-6---9|
A|-----------------------------------------------------------------------|
E|-----------------------------------------------------------------------|



Canción sacada de:
http://www.nuevaq.net/cristianas/javier-barrantes/

Por Favor Califiquen

E-mail: danieluchuk@gmail.com
Manden sugerencias o peticiones sobre esta canción o para sacar otra, gracias.

GDLM

Paz. Sea para alabanza a Dios, Bendiciones...

Saludos desde Iglesia de Dios (7 Día). San Vicente, Misiones, Argentina.