Todo Es Un Plan De Dios

Javier Barrantes

Genero:

Tablatura

Si te gustó esta transcripción, más Transcripciones Cristianas en:
http://acordes.lacuerda.net/ARCH/busca-av.php?action=Amigo&req_data=U:GDLM
--------------------------------------------------------------------------

Tonalidad: A - G - G# - B - A

Intro:

B|-------5----------|-------------------|-------5-------------|
G|---4-6---7-6-4---4|-----4-7-7-6-4-----|---4-6---7-6-4---6-4-|
D|-7-------------7--|-6-7-----------6-7-|-7-------------7-----|

Verso:
A E F#m
Sé que perdiste lo que más amabas
D F#m E
Sé que es dificil ver morir la esperanza



Pre-Coro:
A E F#m
Sé que es doloroso pensar que no hay salida
D F#m E
A veces creemos que se nos va la vida
Bm D E
Aunque no lo entendamos Él siempre tiene un plan
Bm D E
Sé que es duro el proceso pero así trabaja Él




Coro:
A D E
Esto duele y yo lo sé
F#m A
Pero es tiempo de ponerte en pie
D Bm E
Es momento de olvidar y volver a comenzar
A D E
Si asi Dios lo permitió
F#m A
Te aseguro que Él tiene el control
D
No permitas que el dolor
Bm E
Te dañe tu corazón

Todo es un plan de dios



Intro:

B|-------5----------|-------------------|-------5-------------|
G|---4-6---7-6-4---4|-----4-7-7-6-4-----|---4-6---7-6-4---6-4-|
D|-7-------------7--|-6-7-----------6-7-|-7-------------7-----|


Pre-Coro:
A E F#m
Sé que es doloroso pensar que no hay salida
D F#m E
A veces creemos que se nos va la vida
Bm D E
Aunque no lo entendamos Él siempre tiene un plan
Bm D E
Sé que es duro el proceso pero así trabaja Él




Coro:
A D E
Esto duele y yo lo sé
F#m A
Pero es tiempo de ponerte en pie
D Bm E
Es momento de olvidar y volver a comenzar
A D E
Si asi Dios lo permitió
F#m A
Te aseguro que Él tiene el control
D
No permitas que el dolor
Bm E
Te dañe tu corazón




Puente:

E|-----5-7-|--------------------------|2s3--2| s= slide
B|---7-----|--------------------------|------| b= bending
G|-7-------|--------------------------|------|
G D
Sé que tus amigos te dejaron
B|-----------------------------------5b-------|
C E|-------------7-8-10-11|
Sé del dolor que te causaron B|--------8-10----------|
G|--7-9-10--------------|
D|10--------------------|
Em C
Pero Dios está contigo para hacerte feliz
B|---------------------------------16--18-18---|
G# D#
Sé que es muy duro el proceso
B|-----------------------20-18-18--------------|
C#
Pero solo dale tiempo
E|9-8------------|
B|---11-9--------|
F#m G G|-------11-9-8-8|
Y verás a Dios obrar




Coro:

E|-------------------12b-9-|
B E F#
Esto duele y yo lo sé
E|---------------------9------7----|
G#m B
Pero es tiempo de ponerte en pie
E|---------------------------------------7-7-9-11-|
E C#m F#
Es momento de olvidar y volver a comenzar
E|----------------------12b-----11-9-7-11-9|
B E F#
Si asi Dios lo permitió
E|-------------------------9-7-----|
G#m B
Te aseguro que Él tiene el control
E|-----------11----12-9-|
E
No permitas que el dolor
E|9--11-11---11-11-12-9----|
C#m F#
Te dañe tu corazón

Todo es un plan de dios



B|-------5----------|-------------------|-------5-------------|
G|---4-6---7-6-4---4|-----4-7-7-6-4-----|---4-6---7-6-4---6-4-|
D|-7-------------7--|-6-7-----------6-7-|-7-------------7-----|



Canción sacada de:
http://www.nuevaq.net/cristianas/javier-barrantes/

E-mail: danieluchuk@gmail.com
Manden sugerencias o peticiones sobre esta canción o para sacar otra, gracias.

GDLM

Paz. Sea para alabanza a Dios, Bendiciones...

Saludos desde Iglesia de Dios (7 Día). San Vicente, Misiones, Argentina.