Hasta Cuando

Javier Barrantes

Genero:

Tablatura

Si te gustó esta transcripción, más Transcripciones Cristianas en:
http://acordes.lacuerda.net/ARCH/busca-av.php?action=Amigo&req_data=U:GDLM
----------------------------------------------------------------------------



Tonalidad: C

Intro:
C G C F C G F

E|-12----15------------12-13-------12----15---------------|
B|----13---15----13-10----------------13----15---15s12s13-|


Verso:
C F
Miro el reflejo de lo que queda de tí
D|---10-7------|
C F A|-8------5-10-|
Y cada día es peor
B|------10-8-|
C F G|----9------|
Y las palabras que no debiste escuchar D|-10--------|
D|---10-7---7--|
C F A|-8------7----|
Son las que guían tu andar



Pre-Coro:
D|-10-9------7-|
Dm C G A|------10-7---|
Sé sordo a las palabras que te matan el amor

Dm C G
No inviertas más tu tiempo pensando en tu dolor



Coro:
C
Hasta cuando estarás en el error
Am
Pensando que todo intento fracasó
F
Para poder avanzar hay que caminar
G
Para poder terminar hay que comenzar
C
Los valientes se caen pero se levantan
Am
Los vencedores tropiezan pero siempre avanzan
F
Dios te dió el poder para decidir
G
Y escribir el destino que quieras vivir


Dm-C-G
Pero cuando será lo decides tú


Interlude:

C F Gm Cm F
B|-----1---1-|-----1---1-|------------|-----------8-|
G|-------0---|-------2---|------------|---------9---|
D|---2-------|---3-------|------------|-10-9-10-----|
A|-3---------|-3---------|------------|-------------|


Verso:
C F
Miro el reflejo de lo que queda de tí
C F
Y cada día es peor
C F
Y las palabras que no debiste escuchar
C F
Son las que guían tu andar



Pre-Coro:
D|-10-9------7-|
Dm C G A|------10-7---|
Sé sordo a las palabras que te matan el amor
Dm C G
No inviertas más tu tiempo pensando en tu dolor



Coro (x2):
C
Hasta cuando estarás en el error
Am
Pensando que todo intento fracasó
F
Para poder avanzar hay que caminar
G
Para poder terminar hay que comenzar
C
Los valientes se caen pero se levantan
Am
Los vencedores tropiezan pero siempre avanzan
F
Dios te dió el poder para decidir
G
Y escribir el destino que quieras vivir



Dm-C-G
Pero cuando será lo decides tú


Final:
C G C F C G F C

E|-12----15-------------12--13-----------12----15------------------|
B|----13---15----13-10----------------13----15----15-13---17-15-13-|




Canción sacada de:
http://www.nuevaq.net/cristianas/javier-barrantes/


Por Favor Califiquen

E-mail: danieluchuk@gmail.com
https://www.facebook.com/GustavoDanielLuchukMachado
Manden sugerencias o peticiones sobre esta canción o para sacar otra, gracias.

GDLM

Paz. Sea para alabanza a Dios, Bendiciones...

Saludos desde Iglesia de Dios (7 Día). San Vicente, Misiones, Argentina.